Guitaretab - guitar tabs
Song name
# A B C D E F G H I J K L M N O P Q R S T U V W X Y Z

Fightstar - Mercury Summer tab

The song order’s at the bottom. I think there are 3 guitars in the bridge (or maybe 2 
and the keyboard) but if you listen close you’ll hear it

INTRO
Guitar 1
D#|-------------------|
A#|-33333333-33333333-|
F#|-55555555-55555555-|
C#|-------------------|
G#|-------------------|
C#|-------------------|

VERSE
Guitar 1
D#|---------------------------------------------------------------------|
A#|---------------------------------------------------------------------|
F#|---------------------------------------------------------------------|
C#|-777-777-77---777-777-77---101010-101010-1010---101010-101010-1010---|
G#|-777-777-77---777-777-77---101010-101010-1010---101010-101010-1010---|
C#|-777-777-77---777-777-77---101010-101010-1010---101010-101010-1010---|

D#|---------------------------------------------------|
A#|---------------------------------------------------|
F#|---------------------------------------------------|
C#|-555-555-55---555-555-55---333-333-33---333-333-33-|
G#|-555-555-55---555-555-55---333-333-33---333-333-33-|
C#|-555-555-55---555-555-55---333-333-33---333-333-33-|

D#|-----------------------------------------------------|
A#|-----------------------------------------------------|
F#|-----------------------------------------------------|
C#|-77777777-7777777-1010101010101010-1010101010101010--|
G#|-77777777-7777777-1010101010101010-1010101010101010--|
C#|-77777777-7777777-1010101010101010-1010101010101010--|

D#|-------------------------------------|
A#|-------------------------------------|
F#|-------------------------------------|
C#|-55555555-55555555-33333333-33333333-|
G#|-55555555-55555555-33333333-33333333-|
C#|-55555555-55555555-33333333-33333333-|

Guitar 2 (joins in at 0.17 for the first verse, plays from start of 2nd verse)
D#|----------------------------------------------|
A#|-13-12------13-12---------13-12---------------|
F#|----------------------------------------------|
C#|-------14---------14-12---------12---15-14----|
G#|-------------------------------------------12-|
C#|----------------------------------------------|
[ Tab from: http://www.guitaretab.com/f/fightstar/183004.html ]
“You get up move around..”
Guitar 1
D#|---------------------------------------|
A#|---------------------------------------|
F#|---------------------------------------|
C#|-77777777-77777777---55555555-55555555-|
G#|-77777777-77777777---55555555-55555555-|
C#|-77777777-77777777---55555555-55555555-|

Guitar 2 (x8)(theres some keyboard playing as well)
D#|-------12----|
A#|----10----10-|
F#|-12----------|
C#|-------------|
G#|-------------|
C#|-------------|

“I know it’s gonna be alright..”
Guitar 1
D#|------------------------|
A#|------------------------|
F#|------------------------|
C#|------------------------|
G#|-2(x16)---3(x8)---5(x8)-|
C#|------------------------|

Guitar 2
D#|----------------------------------------------|
A#|----------------------------------------------|
F#|----------------------------------------------|
C#|----------------------------------------------|
G#|----------------------------------------------|
C#|-121212-101010-99999999---101010-999-55555555-|


CHORUS
Guitar 1
D#|-------------------------------------|
A#|-------------------------------------|
F#|-------------------55555555----------|
C#|-33333333-33333333-55555555-55555555-|
G#|-33333333-33333333-33333333-55555555-|
C#|-33333333-33333333----------55555555-|

Guitar 2
D#|--------------------------|
A#|-13-(x16)---------12-(x8)-|
F#|----------12-(x8)---------|
C#|--------------------------|
G#|--------------------------|
C#|--------------------------|


BRIDGE
Guitar 1
D#|-----------------------------------------------------|
A#|-----------------------------------------------------|
F#|-----------------------------------------------------|
C#|-77777777-7777777-1010101010101010-1010101010101010--|
G#|-77777777-7777777-1010101010101010-1010101010101010--|
C#|-77777777-7777777-1010101010101010-1010101010101010--|

D#|-------------------------------------|
A#|-------------------------------------|
F#|-------------------------------------|
C#|-55555555-55555555-33333333-33333333-|
G#|-55555555-55555555-33333333-33333333-|
C#|-55555555-55555555-33333333-33333333-|

Guitar 2 (x3)
F#|-10----------|
A#|----13-12-13-|
D#|-------------|
C#|-------------|
G#|-------------|
C#|-------------|

Guitar 3
F#|-------------------------------------------------------|
A#|-------------------------------------------------------|
D#|------------------------------------------------12(x8)-|
C#|-10-(x16)---12(x8)---14(x8)---9(x16)---10(x8)----------|
G#|-------------------------------------------------------|
C#|-------------------------------------------------------|


INTRO
VERSE
CHORUS x2
INTRO
VERSE
CHORUS x4
BRIDGE
CHORUS x4
INTRO
Related for Mercury Summer tab
×
Mercury Summer