Song name
# A B C D E F G H I J K L M N O P Q R S T U V W X Y Z

Fightstar - Shinji Ikari tab

This is one of my first tabs so if it's a little off just tell me
But no one else has put tab up for this song so it has too be done!!


Main riff
e-----------------------------|
B-----------------------------|
G----------6---6---------3----|
D--------4---4---4-------4----|
A------6------------6----4----|
E-----------------------------|


Solo (alternate picking)
e-----------------------------|
B---------14-----12---11------|
G----6------------------------|
D-----------------------------|
A-----------------------------|
E-----------------------------|

Ending chords

e----------------------------|
B----------------------------|
G-----4--3-------------------|
D-----4--3-----4-------------|
A-----2--1-----4-------------|
E--------------2-------------|

Any corrections are very welcome :)
Tap to rate this tab
 
# A B C D E F G H I J K L M N O P Q R S T U V W X Y Z