Song name
# A B C D E F G H I J K L M N O P Q R S T U V W X Y Z

Fightstar - Hold Out Your Arms Acoustic tab

Drop D ebgDAD

Intro
e|---------------------------------------------------------------------|
B|-7--------7--------7--------7--------7--------7----------------------|
G|-0--0--0--0--0--0--0--0-----0--0--0--0--0--0--0--0-------------------|X 2
D|---------------------------------------------------------------------|
A|-7--7--7--7--7--7--7--7----------------------------------------------|
D|----------------------------0--0--0--0--0--0--0--0-------------------|

Vers:
e|---------------------------------------------------------------------|
B|-7--------7--------7--------7--------7--------7----------------------|
G|-0--0--0--0--0--0--0--0-----0--0--0--0--0--0--0--0-------------------|X 2
D|---------------------------------------------------------------------|
A|-7--7--7--7--7--7--7--7----------------------------------------------|
D|----------------------------0--0--0--0--0--0--0--0-------------------|

e|-------------------------------------------------------------------------|
B|--8----------8-------------8------7------7--------7----------------------|
G|-----0----------0------------0------0-------0---------0------------------|
D|-------------------------------------------------------------------------|
A|---------7-----------7-----------------5-------5-------------------------|
D|-------------------------------------------------------------------------|

e|-------------------------------------------------------------------------|
B|---5-------5--------5------3--------3--------3---------------------------|
G|-----0-------0--------0------0--------0--------0-------------------------|
D|-------------------------------------------------------------------------|
A|---------3------3----------------2--------2------------------------------|
D|-------------------------------------------------------------------------|

e|------------------------------------------------------0------------------|
B|--1---------1-------1-------0-----0-----0------0-------------------------|
G|----0---------0-------0--------------0-----------0-----------------------|
D|-------------------------------0------------0----------------------------|
A|-------0---------0-------------------------------------------------------|
D|----------------------------5-----------4-------------2------------------|

CHORUS:
e|-------------------------------------------------------------------------|
B|-------------------------------------------------------------------------|
G|-----------------------------9--------9--------9-------------------------|
D|-4--------4--------4---------x--x--x--x--x--x--x--x----------------------|
A|-2--2--2--2--2--2--2--2------7--7--7--7--7--7--7--7----------------------|
D|-2--2--2--2--2--2--2--2------0--0--0--0--0--0--0--0----------------------|

e|-------------------------------------------------------------------------|
B|-------------------------------------------------------------------------|
G|-----------------------------9--------9--------9-------------------------|
D|-4--------4--------4---------x--x--x--x--x--x--x--x----------------------|
A|-2--2--2--2--2--2--2--2------7--7--7--7--7--7--7--7----------------------|
D|-2--2--2--2--2--2--2--2------0--0--0--0--0--0--0--0----------------------|
         
                                                    BREAK:
e|-------------------------------------------------|-----------------------|
B|-------------------------------------------------|--Vers again:----------|
G|--------------------------2--------2--------2----|-----------------------|
D|-4--------4--------4------0--0--0--0--0--0--0--0-|-----------------------|
A|-2--2--2--2--2--2--2--2---0--0--0--0--0--0--0--0-|-----------------------|
D|-2--2--2--2--2--2--2--2--------------------------|-----------------------|

CHORUS HEREE:


MIDDLE:
e|-------------------------------------------------------------------------|
B|-------------------------------------------------------------------------|
G|-------------------------------------------------------------------------|
D|-5-------5-------5-----9------9-------9---------------------------------|
A|---7--7-----7--7---7-----7--7----7--7----7-------------------------------|
D|-------------------------------------------------------------------------|
                                                            
e|-------------------------------------------------------------------------|
B|-------------------------------------------------------------------------|
G|-------------------------------------------------------------------------|
D|--4-------4---------4-----2------2-------2-------------------------------|
A|-------------------------------------------------------------------------|
D|-----0--0-----0--0-----0----0--0----0--0----0----------------------------|
        
                                                            X4 in that order

e|-------------------------------------------------------------------------|
B|-------------------------------------------------------------------------|
G|-------------------------------------------------------------------------|
D|-5-------5-------5-----9------9-------9---------------------------------|
A|---7--7-----7--7---7-----7--7----7--7----7-------------------------------|
D|-------------------------------------------------------------------------|
                                                            
e|-------------------------------------------------------------------------|
B|-------------------------------------------------------------------------|
G|-------------------------------------------------------------------------|
D|--4-------4---------4-----2------2-----------2---------------------------|
A|---------------------------------------0--0--0--0------------------------|
D|-----0--0-----0--0-----0----0--0----0--0--0--0--0------------------------|

CHORUS:

OUTRO=VERS

THANKS/JohannesBach Sweden
                    

Tap to rate this tab
# A B C D E F G H I J K L M N O P Q R S T U V W X Y Z