Song name
# A B C D E F G H I J K L M N O P Q R S T U V W X Y Z

Fightstar - Give Me The Sky tab

Ok, so this probably isnt going to be exact or perfect, but it irritated me slightly 
there was nothing on here for what is surely fightstar's best song.

Its not a particularly difficult song to play, but it sounds pretty amazing with the 
pedals and amps anyways.

So here goes. Its in drop d tuning (i think).

Intro (tremolo pick each note with lots of reverb) x2
e|---------------17----21----|
b|---------------------------|
g|---18----21----------------|
d|---------------------------|
a|---------------------------|
d|---------------------------|

The bit before the verse (clean):
e|-----------------------------|
b|-----------------------------|
g|-----------------------------|
d|-----------------------------|
a|--777777-555-4-5-4-----------|
d|-------------------777777777-|

e|--------------------------------------|
b|--------------------------------------|
g|--------------------------------------|
d|--7-7-7-7-7-6-6-6-7-6-4-4-4-4-4-4-4-4-|
a|--5-5-5-5-5-5-5-5-5-5-5-5-5-5-5-5-5-5-|
d|--0-0-0-0-0-0-0-0-0-0-0-0-0-0-0-0-0-0-|

e|-----------------------------|
b|-----------------------------|
g|-----------------------------|
d|-----------------------------|
a|--777777-555-4-5-4-----------|
d|-------------------777777777-|

e|------------------------------------------|
b|------------------------------------------|
g|--2-2-2-2-2-4-4-4-6-6-6-2-2-2-2-2-2-2-2-2-|
d|--4-4-4-4-4-6-6-6-7-7-7-0-0-0-0-0-0-0-0-0-|
a|------------------------------------------|
d|------------------------------------------|

Verse 1 (play twice - clean)
e|-0-0-0-0-0----0-0-0-0-0----0-0----------------------|
b|-0-0-0-0-0----0-0-0-0-0----0-0-3-3-3----------------|
g|-1-1-2-2-2----2-2-6-6-6----6-6-2-2-2----11-11-7-7-7-|
d|-2-2-4-4-4----4-4-7-7-7----7-7-0-0-0-----x--x-x-x-x-|
a|-2-2-4-4-4----4-4-7-7-7----7-7-0-0-0-----9--9-5-5-5-|
d|-2-2-4-4-4----4-4-7-7-7----7-7-0-0-0-----0--0-0-0-0-|

Pre Chorus
e|------------------------------|
b|------17--14-------17---------|
g|--14-----------14------16--18-|
d|------------------------------|
a|------------------------------|
d|------------------------------|

Chorus Guitar 1 (tremolo picked with lots of reverb) x2
e|---------------17----21----|
b|---------------------------|
g|---18----21----------------|
d|---------------------------|
a|---------------------------|
d|---------------------------|

Chorus guitar 2 (distortion & lots of reverb) x2
e|--0-------------0--------|
b|--0------3------0------3-|
g|--6------2------2------2-|
d|--7------0------4------0-|
a|--7------0------4------0-|
d|--7------0------4------0-|

Then play the bit before the verse and the verse again, and then the pre chorus and chorus again.

The bit after the second chorus - clean. (Play each chord 16 times, not 8 as shown here)
e|-------------------------------------------------|
b|-------------------------------------------------|
g|-14-14-14-14-14-14-14-14-14-14-14-14-14-14-14-14-|
d|-14-14-14-14-14-14-14-14-14-14-14-14-14-14-14-14-|
a|-12-12-12-12-12-12-12-12-11-11-11-11-11-11-11-11-|
d|-------------------------------------------------|

e|-------------------------------------------------|
b|-------------------------------------------------|
g|-------------------------------------------------|
d|-14-14-14-14-14-14-14-14-14-14-14-14-14-14-14-14-|
a|-11-11-11-11-11-11-11-11-12-12-12-12-12-12-12-12-|
d|-11-11-11-11-11-11-11-11-12-12-12-12-12-12-12-12-|

Epic sounding part at the end

Guitar 1 (termolo with heavy reverb)
e|----------------------------------17--16------16--17--16--19--21-|
b|------------------------------------------17---------------------|
g|--19--18--14------19--18--14--16---------------------------------|
d|--------------14-------------------------------------------------|
a|-----------------------------------------------------------------|
d|-----------------------------------------------------------------|

Guitar 2 (Distorted - insaneley heavy reverb)
e|-0---0---0-----|
b|-0---0---0---3-|
g|-6---2---6---2-|
d|-7---4---7---0-|
a|-7---4---7---0-|
d|-7---4---7---0-|
Tap to rate this tab
 
# A B C D E F G H I J K L M N O P Q R S T U V W X Y Z