Song name
# A B C D E F G H I J K L M N O P Q R S T U V W X Y Z

Fightstar - Wheres The Money Lebowski tab

Ripped from my GP5, tuning Drop B (album version).
Copyright of tab, Ciaran Plummer.

Chaz Dis.


Intro
      PM PM     PM    PM    PM       PM    PM    PM    PM  
C#||---------------------------|--------------------------|
G#||---------------------------|--------------------------|
E ||---------------------------|--------------------------|
B ||---------------------------|--------------------------|
F#||--0--0--10--0--8--0--7--0--|--8--0--7--0--5--0--4--0--|
B ||---------------------------|--------------------------|


  PM PM     PM    PM    PM       PM    PM    PM    PM       
---------------------------|-------------------------------|
---------------------------|-------------------------------|
---------------------------|-------------------------------|
---------------------------|-------------------------------|
--0--0--10--0--8--0--7--0--|--8--0--7--0--5h-7p-5h-7p-4----|
---------------------------|-------------------------------|


  PM PM     PM    PM    PM       PM    PM    PM    PM   
---------------------------|--------------------------|
---------------------------|--------------------------|
---------------------------|--------------------------|
---------------------------|--------------------------|
--0--0--10--0--8--0--7--0--|--8--0--7--0--5--0--4--0--|
---------------------------|--------------------------|


  PM PM     PM    PM    PM       PM    PM    PM    PM       
---------------------------|-------------------------------|
---------------------------|-------------------------------|
---------------------------|-------------------------------|
---------------------------|-------------------------------|
--0--0--10--0--8--0--7--0--|--8--0--7--0--5h-7p-5h-7p-4----|
---------------------------|-------------------------------|


  PM PM     PM    PM    PM       PM    PM    PM    PM  
---------------------------|--------------------------|
---------------------------|--------------------------|
---------------------------|--------------------------|
---------------------------|--------------------------|
--0--0--10--0--8--0--7--0--|--8--0--7--0--5--0--4--0--|
---------------------------|--------------------------|


  PM PM     PM    PM    PM       PM    PM    PM    PM       
---------------------------|-------------------------------|
---------------------------|-------------------------------|
---------------------------|-------------------------------|
---------------------------|-------------------------------|
--0--0--10--0--8--0--7--0--|--8--0--7--0--5h-7p-5h-7p-4----|
---------------------------|-------------------------------|


  PM PM     PM    PM    PM       PM    PM    PM    PM  
---------------------------|--------------------------|
---------------------------|--------------------------|
---------------------------|--------------------------|
---------------------------|--------------------------|
--0--0--10--0--8--0--7--0--|--8--0--7--0--5--0--4--0--|
---------------------------|--------------------------|


  PM PM     PM    PM    PM       PM    PM    PM    PM       
---------------------------|-------------------------------|
---------------------------|-------------------------------|
---------------------------|-------------------------------|
---------------------------|-------------------------------|
--0--0--10--0--8--0--7--0--|--8--0--7--0--5h-7p-5h-7p-4----|
---------------------------|-------------------------------|

Riff

--------------------------|-----------------------------|
--------------------------|-----------------------------|
--------------------------|-----------------------------|
--12-------10--12----0----|-----10--12----15--17--15----|
--12-------10--12----0----|-----10--12----15--17--15----|
--12-------10--12----0----|-----10--12----15--17--15----|


--------------------------|-----------------------------|
--------------------------|-----------------------------|
--------------------------|-----------------------------|
--12-------10--12----0----|-----10--12----15--17--19----|
--12-------10--12----0----|-----10--12----15--17--19----|
--12-------10--12----0----|-----10--12----15--17--19----|


--------------------------|-----------------------------|
--------------------------|-----------------------------|
--------------------------|-----------------------------|
--12-------10--12----0----|-----10--12----15--17--15----|
--12-------10--12----0----|-----10--12----15--17--15----|
--12-------10--12----0----|-----10--12----15--17--15----|

                                                      Verse
                                PM    PM    PM    PM                           
--------------------------|--------------------------|----------------------|
--------------------------|--------------------------|----------------------|
--------------------------|--------------------------|----------------------|
--12-------10--12----0----|--------------------------|----------------------|
--12-------10--12----0----|--8--0--7--0--5--0--4--0--|--0--0--------------0-|
--12-------10--12----0----|-----0-----0-----0-----0--|--0--0--------------0-|

     
------------------------|------------------------|-----------------------|--|
------------------------|------------------------|-----------------------|--|
------------------------|------------------------|-----------------------|--|
------------------------|------------------------|-----------------------|--|
--0--0---------------0--|--0--0---------------0--|--0--0-----------------|--|
--0--0---------------0--|--0--0---------------0--|--0--0-----------------|--|


-----|-----|-----|------------------------|------------------------|
-----|-----|-----|------------------------|------------------------|
-----|-----|-----|------------------------|------------------------|
-----|-----|-----|------------------------|------------------------|
-----|-----|-----|--0--0---------------0--|--0--0---------------0--|
-----|-----|-----|--0--0---------------0--|--0--0---------------0--|

     
------------------------|-----------------------|-----|-----|-----|-----|
------------------------|-----------------------|-----|-----|-----|-----|
------------------------|-----------------------|-----|-----|-----|-----|
------------------------|-----------------------|-----|-----|-----|-----|
--0--0---------------0--|--0--0-----------------|-----|-----|-----|-----|
--0--0---------------0--|--0--0-----------------|-----|-----|-----|-----|

                                                     Chorus
     PM    PM    PM    PM                                                        
--------------------------|--------------------------|-----|-----|-----|----|
--------------------------|--------------------------|-----|-----|-----|----|
--------------------------|--------------------------|-----|-----|-----|----|
--------------------------|--------------------------|-----|-----|-----|----|
--8--0--7--0--5--0--4--0--|--8--0--7--0--5--0--4--0--|-----|-----|-----|----|
-----0-----0-----0-----0--|--------------------------|-----|-----|-----|----|


-----|-----|-----|-----|-----|-----|-----|-----|-----|-----|-----|-----|
-----|-----|-----|-----|-----|-----|-----|-----|-----|-----|-----|-----|
-----|-----|-----|-----|-----|-----|-----|-----|-----|-----|-----|-----|
-----|-----|-----|-----|-----|-----|-----|-----|-----|-----|-----|-----|
-----|-----|-----|-----|-----|-----|-----|-----|-----|-----|-----|-----|
-----|-----|-----|-----|-----|-----|-----|-----|-----|-----|-----|-----|

                                                     Verse
     PM    PM    PM    PM                                                        
--------------------------|--------------------------|----------------------|
--------------------------|--------------------------|----------------------|
--------------------------|--------------------------|----------------------|
--------------------------|--------------------------|----------------------|
--8--0--7--0--5--0--4--0--|--8--0--7--0--5--0--4--0--|--0--0--------------0-|
-----0-----0-----0-----0--|--------------------------|--0--0--------------0-|

     
------------------------|------------------------|-----------------------|--|
------------------------|------------------------|-----------------------|--|
------------------------|------------------------|-----------------------|--|
------------------------|------------------------|-----------------------|--|
--0--0---------------0--|--0--0---------------0--|--0--0-----------------|--|
--0--0---------------0--|--0--0---------------0--|--0--0-----------------|--|


-----|-----|-----|------------------------|------------------------|
-----|-----|-----|------------------------|------------------------|
-----|-----|-----|------------------------|------------------------|
-----|-----|-----|------------------------|------------------------|
-----|-----|-----|--0--0---------------0--|--0--0---------------0--|
-----|-----|-----|--0--0---------------0--|--0--0---------------0--|


------------------------|-----------------------|-----|-----|-----|-----|
------------------------|-----------------------|-----|-----|-----|-----|
------------------------|-----------------------|-----|-----|-----|-----|
------------------------|-----------------------|-----|-----|-----|-----|
--0--0---------------0--|--0--0-----------------|-----|-----|-----|-----|
--0--0---------------0--|--0--0-----------------|-----|-----|-----|-----|

                                                     Chorus
     PM    PM    PM    PM                                                      
--------------------------|--------------------------|-----|-----|-----|----|
--------------------------|--------------------------|-----|-----|-----|----|
--------------------------|--------------------------|-----|-----|-----|----|
--------------------------|--------------------------|-----|-----|-----|----|
--8--0--7--0--5--0--4--0--|--8--0--7--0--5--0--4--0--|-----|-----|-----|----|
-----0-----0-----0-----0--|--------------------------|-----|-----|-----|----|


-----|-----|-----|-----|-----|-----|-----|-----|-----|-----|-----|-----|
-----|-----|-----|-----|-----|-----|-----|-----|-----|-----|-----|-----|
-----|-----|-----|-----|-----|-----|-----|-----|-----|-----|-----|-----|
-----|-----|-----|-----|-----|-----|-----|-----|-----|-----|-----|-----|
-----|-----|-----|-----|-----|-----|-----|-----|-----|-----|-----|-----|
-----|-----|-----|-----|-----|-----|-----|-----|-----|-----|-----|-----|

Build

-------------------|-------------------|----------------------|
-------------------|-------------------|----------------------|
-------------------|-------------------|----------------------|
-------------------|-------------------|----------------------|
--8----------------|--L----------------|--(8)h----------------|
--0----------------|--L----------------|--(0)h----------------|


                        PM PM    PM PM PM PM PM       PM PM PM PM PM PM PM  
---------------------|--------------------------|--------------------------|
---------------------|--------------------------|--------------------------|
---------------------|--------------------------|--------------------------|
---------------------|--------------------------|--------------------------|
--(8)----------------|--0--0-----0--0--0--0--0--|-----7--8--7--8--7--5--7--|
--(0)----------------|--0--0-----0--0--0--0--0--|--------------------------|


  PM PM    PM PM PM PM PM       PM PM PM PM PM PM PM  
--------------------------|--------------------------|
--------------------------|--------------------------|
--------------------------|--------------------------|
--------------------------|--------------------------|
--8--8-----8--8--8--5--5--|-----5--5--5--5--5--3--3--|
--8--8-----8--8--8--5--5--|-----5--5--5--5--5--3--3--|


  PM PM    PM PM PM PM PM       PM PM PM PM PM PM PM  
--------------------------|--------------------------|
--------------------------|--------------------------|
--------------------------|--------------------------|
--------------------------|--------------------------|
--0--0-----0--0--0--0--0--|-----7--8--7--8--7--5--7--|
--0--0-----0--0--0--0--0--|--------------------------|


  PM PM    PM PM PM PM PM       PM PM PM PM PM PM PM  
--------------------------|--------------------------|
--------------------------|--------------------------|
--------------------------|--------------------------|
--------------------------|--------------------------|
--8--8-----8--8--8--5--5--|-----5--5--5--5--5--3--3--|
--8--8-----8--8--8--5--5--|-----5--5--5--5--5--3--3--|


  PM PM    PM PM PM PM PM       PM PM PM PM PM PM PM  
--------------------------|--------------------------|
--------------------------|--------------------------|
--------------------------|--------------------------|
--------------------------|--------------------------|
--0--0-----0--0--0--0--0--|-----7--8--7--8--7--5--7--|
--0--0-----0--0--0--0--0--|--------------------------|


  PM PM    PM PM PM PM PM       PM PM PM PM PM PM PM  
--------------------------|--------------------------|
--------------------------|--------------------------|
--------------------------|--------------------------|
--------------------------|--------------------------|
--8--8-----8--8--8--5--5--|-----5--5--5--5--5--3--3--|
--8--8-----8--8--8--5--5--|-----5--5--5--5--5--3--3--|


  PM PM    PM PM PM PM PM       PM PM PM PM PM PM PM  
--------------------------|--------------------------|
--------------------------|--------------------------|
--------------------------|--------------------------|
--------------------------|--------------------------|
--0--0-----0--0--0--0--0--|-----7--8--7--8--7--5--7--|
--0--0-----0--0--0--0--0--|--------------------------|


--------------------------|--------------------------|
--------------------------|--------------------------|
--------------------------|--------------------------|
--------------------------|--------------------------|
--5--5--5--5--5--5--5--5--|--7--7--7--7--7--7--7--7--|
--5--5--5--5--5--5--5--5--|--7--7--7--7--7--7--7--7--|


     PM    PM    PM    PM                             
--------------------------|--------------------------|
--------------------------|--------------------------|
--------------------------|--------------------------|
--------------------------|--------------------------|
--8--0--7--0--5--0--4--0--|--8--0--7--0--5--0--4--0--|
-----0-----0-----0-----0--|--------------------------|

                                                     Outro
  
--------------------------|--------------------------|-----|-----|-----|----|
--------------------------|--------------------------|-----|-----|-----|----|
--------------------------|--------------------------|-----|-----|-----|----|
--------------------------|--------------------------|-----|-----|-----|----|
--8--0--7--0--5--0--4--0--|--8--0--7--0--5--0--4--0--|-----|-----|-----|----|
--------------------------|--------------------------|-----|-----|-----|----|


-----------------------------------------------------------------------------

Al Dis.


Intro
      PM PM                           PM PM                       
C#||-----------------------|-------|-----------------------|-----|
G#||-----------------------|-------|-----------------------|-----|
E ||-----------------------|-------|-----------------------|-----|
B ||--0--0-----------------|-------|--0--0-----------------|-----|
F#||--0--0-----------------|-------|--0--0-----------------|-----|
B ||--0--0-----------------|-------|--0--0-----------------|-----|


  PM PM                         PM PM                      
-----------------------|-----|----------------------|-----|
-----------------------|-----|----------------------|-----|
-----------------------|-----|----------------------|-----|
--0--0-----------------|-----|--0--0--------L----L--|-----|
--0--0-----------------|-----|--0--0--------L----L--|-----|
--0--0-----------------|-----|--0--0--------L----L--|-----|


  PM PM     PM     PM    PM        PM    PM    PM    PM  
----------------------------|---------------------------|
----------------------------|---------------------------|
--------12-----10-----9-----|--10-----9-----7-----6-----|
----------------------------|---------------------------|
--0--0------0------0-----0--|------0-----0-----0-----0--|
--0--0------0------0-----0--|------0-----0-----0-----0--|


  PM PM     PM     PM    PM        PM    PM                   
----------------------------|--------------------------------|
----------------------------|--------------------------------|
--------12-----10-----9-----|--10-----9-----7h-9p-7h-9p-6----|
----------------------------|--------------------------------|
--0--0------0------0-----0--|------0-----0-------------------|
--0--0------0------0-----0--|------0-----0-------------------|


  PM PM     PM     PM    PM        PM    PM    PM    PM  
----------------------------|---------------------------|
----------------------------|---------------------------|
--------12-----10-----9-----|--10-----9-----7-----6-----|
----------------------------|---------------------------|
--0--0------0------0-----0--|------0-----0-----0-----0--|
--0--0------0------0-----0--|------0-----0-----0-----0--|

                                                             Riff
  PM PM     PM     PM    PM        PM    PM                                      
----------------------------|--------------------------------|-------|------|
----------------------------|--------------------------------|-------|------|
--------12-----10-----9-----|--10-----9-----7h-9p-7h-9p-6----|-------|------|
----------------------------|--------------------------------|-------|------|
--0--0------0------0-----0--|------0-----0-------------------|-------|------|
--0--0------0------0-----0--|------0-----0-------------------|-------|------|

                                               Verse

-------|-------|-------|-------|-------|-------|-----------------------|
-------|-------|-------|-------|-------|-------|-----------------3-----|
-------|-------|-------|-------|-------|-------|--0----2----3-------0--|
-------|-------|-------|-------|-------|-------|-----------------------|
-------|-------|-------|-------|-------|-------|-----------------------|
-------|-------|-------|-------|-------|-------|-----------------------|

 
------------------------|-----------------------|------------------------|
---------------3--3--2--|-----------------------|------------------------|
--0--2----3-------------|-----------------4-----|---------------4--4--2--|
------------------------|--0----2----4-------0--|--0--2----4-------------|
------------------------|-----------------------|------------------------|
------------------------|-----------------------|------------------------|


           ^           ^        ^  v  ^                ^         
--------------------|----------------------|--------------------|
--------------------|----------------------|--------------------|
-----------7--------|--L--------7--7--7----|--L--------7--------|
-----------7--------|--L--------7--7--7----|--L--------7--------|
-----------5--------|--L--------5--5--5----|--L--------5--------|
-----------0--------|--L-------------------|-----------0--------|


  ^        ^  v  ^                                                      
----------------------|-----------------------|------------------------|
----------------------|-----------------3-----|---------------3--3--2--|
--L--------7--7--7----|--0----2----3-------0--|--0--2----3-------------|
--L--------7--7--7----|-----------------------|------------------------|
--L--------5--5--5----|-----------------------|------------------------|
--L-------------------|-----------------------|------------------------|


                                                            ^         
-----------------------|------------------------|--------------------|
-----------------------|------------------------|--------------------|
-----------------4-----|---------------4--4--2--|-----------7--------|
--0----2----4-------0--|--0--2----4-------------|-----------7--------|
-----------------------|------------------------|-----------5--------|
-----------------------|------------------------|-----------0--------|


  ^        ^  v  ^                ^           ^        ^  v  ^     
----------------------|--------------------|----------------------|
----------------------|--------------------|----------------------|
--L--------7--7--7----|--L--------7--------|--L--------7--7--7----|
--L--------7--7--7----|--L--------7--------|--L--------7--7--7----|
--L--------5--5--5----|--L--------5--------|--L--------5--5--5----|
--L-------------------|-----------0--------|--L-------------------|

                                       Chorus
                               
-------------------|-------------------|------------------------------|
-------------------|-------------------|------------------------------|
-------------------|-------------------|------------------------------|
-------------------|-------------------|--0--0--15--15--0--0--15--15--|
-------------------|-------------------|--0--0--15--15--0--0--15--15--|
-------------------|-------------------|--0--0--15--15--0--0--15--15--|


------------------------------|------------------------------|
------------------------------|------------------------------|
------------------------------|------------------------------|
--0--0--15--15--0--0--15--15--|--0--0--14--14--0--0--14--14--|
--0--0--15--15--0--0--15--15--|--0--0--14--14--0--0--14--14--|
--0--0--15--15--0--0--15--15--|--0--0--14--14--0--0--14--14--|


------------------------------|----------------------------------|
------------------------------|----------------------------------|
------------------------------|----------------------------------|
--0--0------------------------|----------------------------------|
--0--0--8--8--10--10--12--12--|--13--13--10--10--13--13--10--10--|
--0--0------------------------|----------------------------------|


----------------------------------|--------------------------|
----------------------------------|--------------------------|
----------------------------------|--------------------------|
----------------------------------|--------------------------|
--13--13--10--10--13--13--10--10--|--0--0--7--7--0--0--7--7--|
----------------------------------|--------------------------|


--------------------------|------------------------------|
--------------------------|------------------------------|
--------------------------|------------------------------|
--------------------------|--0--0--15--15--0--0--15--15--|
--0--0--7--7--8--8--7--7--|--0--0--15--15--0--0--15--15--|
--------------------0--0--|--0--0--15--15--0--0--15--15--|


------------------------------|------------------------------|
------------------------------|------------------------------|
------------------------------|------------------------------|
--0--0--15--15--0--0--15--15--|--0--0--14--14--0--0--14--14--|
--0--0--15--15--0--0--15--15--|--0--0--14--14--0--0--14--14--|
--0--0--15--15--0--0--15--15--|--0--0--14--14--0--0--14--14--|


------------------------------|----------------------------------|
------------------------------|----------------------------------|
------------------------------|----------------------------------|
--0--0------------------------|----------------------------------|
--0--0--8--8--10--10--12--12--|--13--13--10--10--13--13--10--10--|
--0--0------------------------|----------------------------------|


----------------------------------|--------------------------|
----------------------------------|--------------------------|
----------------------------------|--------------------------|
----------------------------------|--------------------------|
--13--13--10--10--13--13--10--10--|--0--0--7--7--0--0--7--7--|
----------------------------------|--------------------------|

                                      Verse

--------------------------|-----|-----|-----------------------|
--------------------------|-----|-----|-----------------3-----|
--------------------------|-----|-----|--0----2----3-------0--|
--------------------------|-----|-----|-----------------------|
--0--0--7--7--8--8--7--7--|-----|-----|-----------------------|
--------------------0--0--|-----|-----|-----------------------|


------------------------|-----------------------|------------------------|
---------------3--3--2--|-----------------------|------------------------|
--0--2----3-------------|-----------------4-----|---------------4--4--2--|
------------------------|--0----2----4-------0--|--0--2----4-------------|
------------------------|-----------------------|------------------------|
------------------------|-----------------------|------------------------|


           ^           ^        ^  v  ^                ^         
--------------------|----------------------|--------------------|
--------------------|----------------------|--------------------|
-----------7--------|--L--------7--7--7----|--L--------7--------|
-----------7--------|--L--------7--7--7----|--L--------7--------|
-----------5--------|--L--------5--5--5----|--L--------5--------|
-----------0--------|--L-------------------|-----------0--------|


  ^        ^  v  ^                                                      
----------------------|-----------------------|------------------------|
----------------------|-----------------3-----|---------------3--3--2--|
--L--------7--7--7----|--0----2----3-------0--|--0--2----3-------------|
--L--------7--7--7----|-----------------------|------------------------|
--L--------5--5--5----|-----------------------|------------------------|
--L-------------------|-----------------------|------------------------|


                                                            ^         
-----------------------|------------------------|--------------------|
-----------------------|------------------------|--------------------|
-----------------4-----|---------------4--4--2--|-----------7--------|
--0----2----4-------0--|--0--2----4-------------|-----------7--------|
-----------------------|------------------------|-----------5--------|
-----------------------|------------------------|-----------0--------|


  ^        ^  v  ^                ^           ^        ^  v  ^     
----------------------|--------------------|----------------------|
----------------------|--------------------|----------------------|
--L--------7--7--7----|--L--------7--------|--L--------7--7--7----|
--L--------7--7--7----|--L--------7--------|--L--------7--7--7----|
--L--------5--5--5----|--L--------5--------|--L--------5--5--5----|
--L-------------------|-----------0--------|--L-------------------|

                                       Chorus

-------------------|-------------------|------------------------------|
-------------------|-------------------|------------------------------|
-------------------|-------------------|------------------------------|
-------------------|-------------------|--0--0--15--15--0--0--15--15--|
-------------------|-------------------|--0--0--15--15--0--0--15--15--|
-------------------|-------------------|--0--0--15--15--0--0--15--15--|


------------------------------|------------------------------|
------------------------------|------------------------------|
------------------------------|------------------------------|
--0--0--15--15--0--0--15--15--|--0--0--14--14--0--0--14--14--|
--0--0--15--15--0--0--15--15--|--0--0--14--14--0--0--14--14--|
--0--0--15--15--0--0--15--15--|--0--0--14--14--0--0--14--14--|


------------------------------|----------------------------------|
------------------------------|----------------------------------|
------------------------------|----------------------------------|
--0--0------------------------|----------------------------------|
--0--0--8--8--10--10--12--12--|--13--13--10--10--13--13--10--10--|
--0--0------------------------|----------------------------------|


----------------------------------|--------------------------|
----------------------------------|--------------------------|
----------------------------------|--------------------------|
----------------------------------|--------------------------|
--13--13--10--10--13--13--10--10--|--0--0--7--7--0--0--7--7--|
----------------------------------|--------------------------|


--------------------------|------------------------------|
--------------------------|------------------------------|
--------------------------|------------------------------|
--------------------------|--0--0--15--15--0--0--15--15--|
--0--0--7--7--8--8--7--7--|--0--0--15--15--0--0--15--15--|
--------------------0--0--|--0--0--15--15--0--0--15--15--|


------------------------------|------------------------------|
------------------------------|------------------------------|
------------------------------|------------------------------|
--0--0--15--15--0--0--15--15--|--0--0--14--14--0--0--14--14--|
--0--0--15--15--0--0--15--15--|--0--0--14--14--0--0--14--14--|
--0--0--15--15--0--0--15--15--|--0--0--14--14--0--0--14--14--|


------------------------------|----------------------------------|
------------------------------|----------------------------------|
------------------------------|----------------------------------|
--0--0------------------------|----------------------------------|
--0--0--8--8--10--10--12--12--|--13--13--10--10--13--13--10--10--|
--0--0------------------------|----------------------------------|


----------------------------------|--------------------------|
----------------------------------|--------------------------|
----------------------------------|--------------------------|
----------------------------------|--------------------------|
--13--13--10--10--13--13--10--10--|--0--0--7--7--0--0--7--7--|
----------------------------------|--------------------------|

                          Build
   
--------------------------|-----|-----|-----|-----|-------------------------|
--------------------------|-----|-----|-----|-----|------------------13-----|
--------------------------|-----|-----|-----|-----|--10----L--9--10------10-|
--------------------------|-----|-----|-----|-----|-------------------------|
--0--0--7--7--8--8--7--7--|-----|-----|-----|-----|-------------------------|
--------------------0--0--|-----|-----|-----|-----|-------------------------|


----------------------------|----------------------------|
----------------------------|------------------13--------|
--L--9--10--9--10--9--7--9--|--10----L--9--10------10----|
----------------------------|----------------------------|
----------------------------|----------------------------|
----------------------------|----------------------------|


----------------------------|----------------------------|
----------------------------|------------------13--------|
--L--9--10--9--10--9--7--9--|--10----L--9--10------10----|
----------------------------|----------------------------|
----------------------------|----------------------------|
----------------------------|----------------------------|


----------------------------|--------------------------|
----------------------------|--------------------------|
--L--9--10--9--10--9--7--9--|--5--5--5--5--5--5--5--5--|
----------------------------|--------------------------|
----------------------------|--------------------------|
----------------------------|--------------------------|


--------------------------|----------------------------|
--------------------------|------------------13--------|
--6--6--6--6--6--6--6--6--|--10----L--9--10------10----|
--------------------------|----------------------------|
--------------------------|----------------------------|
--------------------------|----------------------------|


----------------------------|----------------------------|
----------------------------|------------------13--------|
--L--9--10--9--10--9--7--9--|--10----L--9--10------10----|
----------------------------|----------------------------|
----------------------------|----------------------------|
----------------------------|----------------------------|


----------------------------|----------------------------|
----------------------------|------------------13--------|
--L--9--10--9--10--9--7--9--|--10----L--9--10------10----|
----------------------------|----------------------------|
----------------------------|----------------------------|
----------------------------|----------------------------|

 
----------------------------|--------------------------|
----------------------------|--------------------------|
--L--9--10--9--10--9--7--9--|--5--5--5--5--5--5--5--5--|
----------------------------|--------------------------|
----------------------------|--------------------------|
----------------------------|--------------------------|


--------------------------|-----|-----|-----|-----|
--------------------------|-----|-----|-----|-----|
--6--6--6--6--6--6--6--6--|-----|-----|-----|-----|
--------------------------|-----|-----|-----|-----|
--------------------------|-----|-----|-----|-----|
--------------------------|-----|-----|-----|-----|

Outro

------------------------------|------------------------------|
------------------------------|------------------------------|
------------------------------|------------------------------|
--0--0--15--15--0--0--15--15--|--0--0--15--15--0--0--15--15--|
--0--0--15--15--0--0--15--15--|--0--0--15--15--0--0--15--15--|
--0--0--15--15--0--0--15--15--|--0--0--15--15--0--0--15--15--|


------------------------------|------------------------------|
------------------------------|------------------------------|
------------------------------|------------------------------|
--0--0--14--14--0--0--14--14--|--0--0------------------------|
--0--0--14--14--0--0--14--14--|--0--0--8--8--10--10--12--12--|
--0--0--14--14--0--0--14--14--|--0--0------------------------|


----------------------------------|----------------------------------|
----------------------------------|----------------------------------|
----------------------------------|----------------------------------|
----------------------------------|----------------------------------|
--13--13--10--10--13--13--10--10--|--13--13--10--10--13--13--10--10--|
----------------------------------|----------------------------------|


--------------------------|--------------------------|
--------------------------|--------------------------|
--------------------------|--------------------------|
--------------------------|--------------------------|
--0--0--7--7--0--0--7--7--|--0--0--7--7--8--8--7--7--|
--------------------------|--------------------0--0--|


------------------------------|------------------------------|
------------------------------|------------------------------|
------------------------------|------------------------------|
--0--0--15--15--0--0--15--15--|--0--0--15--15--0--0--15--15--|
--0--0--15--15--0--0--15--15--|--0--0--15--15--0--0--15--15--|
--0--0--15--15--0--0--15--15--|--0--0--15--15--0--0--15--15--|


------------------------------|------------------------------|
------------------------------|------------------------------|
------------------------------|------------------------------|
--0--0--14--14--0--0--14--14--|--0--0------------------------|
--0--0--14--14--0--0--14--14--|--0--0--8--8--10--10--12--12--|
--0--0--14--14--0--0--14--14--|--0--0------------------------|


----------------------------------|----------------------------------|
----------------------------------|----------------------------------|
----------------------------------|----------------------------------|
----------------------------------|----------------------------------|
--13--13--10--10--13--13--10--10--|--13--13--10--10--13--13--10--10--|
----------------------------------|----------------------------------|


--------------------------|--------------------------|-------------------|
--------------------------|--------------------------|-------------------|
--------------------------|--------------------------|-------------------|
--------------------------|--------------------------|-------------------|
--0--0--7--7--0--0--7--7--|--0--0--7--7--8--8--7--7--|--8----------------|
--------------------------|--------------------0--0--|--0----------------|

 
-------------------|-----|-----||
-------------------|-----|-----||
-------------------|-----|-----||
-------------------|-----|-----||
--L----------------|-----|-----||
--L----------------|-----|-----||
Tap to rate this tab
# A B C D E F G H I J K L M N O P Q R S T U V W X Y Z