Song name
# A B C D E F G H I J K L M N O P Q R S T U V W X Y Z

Fightstar - Palahniuks Laughter tab

tuning: dropped-B

/-slide up
\-slide down
t-tremolo pick

intro
|-------------------------------------------------------------------------|
|-------------------------------------------------------------------------|
|-------------------------------------------------------------------------|
|-0---10-12---10-12---3-2-0---10-11-12---0---10-12---10-12---3-2-0---0-10-|
|-0---10-12---10-12---3-2-0---10-11-12---0---10-12---10-12---3-2-0---0-10-|
|-0---10-12---10-12---3-2-0---10-11-12---0---10-12---10-12---3-2-0---0-10-|

|--------------------------------------------------------------------------|
|--------------------------------------------------------------------------|
|--------------------------------------------------------------------------|
|-0---10-12---10-12---3-2-0---10-11-12---0---10-12---10-12---3-2-0---0-10\-|
|-0---10-12---10-12---3-2-0---10-11-12---0---10-12---10-12---3-2-0---0-10\-|
|-0---10-12---10-12---3-2-0---10-11-12---0---10-12---10-12---3-2-0---0-10\-|

verse-guitar 1
|------------------------3----------------------3--------|
|-0-------0-------0------3-------0-------0------3--------|
|-0-------0-------0------5-------0-------0------5--------|
|-9X16----9X16----9X16---5-------9X16----9X16---5X32-----|
|-7-------9------10------3X16----7-------9------3--------|
|--------------------------------------------------------|

guitar 2
i'm not in your house but i'm not in your head  and your not even listening
|---------------15-14--------------------12-14----------------------------
|--------------------12-----------------------12------------------13-12---
|----------------------------------------------------------------------12-
|-------------------------------------------------------------------------
|-------------------------------------------------------------------------
|-------------------------------------------------------------------------

          it's so hard      to know       when your not      scared
|---17--17--17--17--17--17--17--17--17--17--17--17--17--17--17--17-|
|-15--15--15--15--15--15--15--15--15--15--15--15--15--15--15--15---|
|------------------------------------------------------------------|
|------------------------------------------------------------------|
|------------------------------------------------------------------|
|------------------------------------------------------------------|

|---17--17--17--19--19--19--19--19--15--15--17--19--19--19--19--19-|
|-15--15--15--15--15--15--15--15--15--15--15--15--15--15--15--15---|
|------------------------------------------------------------------|
|------------------------------------------------------------------|
|------------------------------------------------------------------|
|------------------------------------------------------------------|

pre-chorus
  please....              don't....
|-10-10-10-10-10-10-10-10-10-10-10-10-10-10-10-10--|
|---8--8--8--8--8--8--8--8--7--7--7--7--7--7--7--7-|
|--------------------------------------------------|
|--------------------------------------------------|
|--------------------------------------------------|
|--------------------------------------------------|
  help....                me....
|-12-12-12-12-12-12-12-12-10-10-10-10-10-10-10-10--|
|---8--8--8--8--8--8--8--8--8--8--8--8--8--8--8--8-|
|--------------------------------------------------|
|--------------------------------------------------|
|--------------------------------------------------|
|--------------------------------------------------|

  please....              don't....
|-10-10-10-10-10-10-10-10-10-10-10-10-10-10-10-10--|
|---8--8--8--8--8--8--8--8--7--7--7--7--7--7--7--7-|
|--------------------------------------------------|
|--------------------------------------------------|
|--------------------------------------------------|
|--------------------------------------------------|
  hate....                me....         stop puttin me
|-12-12-12-12-12-12-12-12-10-10-10-10-10-10-10-10--|
|---8--8--8--8--8--8--8--8--8--8--8--8--8--8--8--8-|
|--------------------------------------------------|
|--------------------------------------------------|
|--------------------------------------------------|
|--------------------------------------------------|

chorus
  down          cause i won't  ever.....    understand.....
|-----------------------------------------------------------------|
|-----------------------------------------------------------------|
|-----------------------------------------------------------------|
|-2-2-2-2-2-2-2-2-2-2-2-2-2-2-2-2-0-0-0-0-0-0-0-0-0-0-0-0-0-0-0-0-|
|-2-2-2-2-2-2-2-2-2-2-2-2-2-2-2-2-0-0-0-0-0-0-0-0-0-0-0-0-0-0-0-0-|
|-2-2-2-2-2-2-2-2-2-2-2-2-2-2-2-2-0-0-0-0-0-0-0-0-0-0-0-0-0-0-0-0-|

stop panicking stop panicking
|-----------------------|
|-----------------------|
|-12------11-----12-----|
|-10------10-----10---0-|
|-10------10-----10---0-|
|-10X16---10X8---10X7-0-|

                i see it in your eyes         i see it in your mind
|-----------------------------------------------------------------|
|-----------------------------------------------------------------|
|-----------------------------------------------------------------|
|-2-2-2-2-2-2-2-2-2-2-2-2-2-2-2-2-0-0-0-0-0-0-0-0-0-0-0-0-0-0-0-0-|
|-2-2-2-2-2-2-2-2-2-2-2-2-2-2-2-2-0-0-0-0-0-0-0-0-0-0-0-0-0-0-0-0-|
|-2-2-2-2-2-2-2-2-2-2-2-2-2-2-2-2-0-0-0-0-0-0-0-0-0-0-0-0-0-0-0-0-|

stop panicking stop panicking
|-------------------|
|-------------------|
|-12------11--------|
|-10------10-----10-|
|-10------10-----10-|
|-10X16---10X8---10-| 

|-------------------------------------------------------------------------|
|-------------------------------------------------------------------------|
|-------------------------------------------------------------------------|
|-0---10-12---10-12---3-2-0---10-11-12---0---10-12---10-12---3-2-0---0-10-|
|-0---10-12---10-12---3-2-0---10-11-12---0---10-12---10-12---3-2-0---0-10-|
|-0---10-12---10-12---3-2-0---10-11-12---0---10-12---10-12---3-2-0---0-10-|

|--------------------------------------------------------------------------|
|--------------------------------------------------------------------------|
|--------------------------------------------------------------------------|
|-0---10-12---10-12---3-2-0---10-11-12---0---10-12---10-12---3-2-0---0-10\-|
|-0---10-12---10-12---3-2-0---10-11-12---0---10-12---10-12---3-2-0---0-10\-|
|-0---10-12---10-12---3-2-0---10-11-12---0---10-12---10-12---3-2-0---0-10\-|

verse-guitar 1
|------------------------3----------------------3--------|
|-0-------0-------0------3-------0-------0------3--------|
|-0-------0-------0------5-------0-------0------5--------|
|-9X16----9X16----9X16---5-------9X16----9X16---5X32-----|
|-7-------9------10------3X16----7-------9------3--------|
|--------------------------------------------------------|

guitar-2
            i'm trying not to speak cause you can't here my
|-------------------------------------------------|
|-15-15-15-15-15-15-15-15-15-15-15-15-15-15-15-15-|
|-------------------------------------------------|
|-------------------------------------------------|
|-------------------------------------------------|
|-------------------------------------------------|
 voice           and nothing seems familiar here
|---17--17--17--19--19--19--19--19--15--15--17--19--19--19--19--19-|
|-15--15--15--15--15--15--15--15--15--15--15--15--15--15--15--15---|
|------------------------------------------------------------------|
|------------------------------------------------------------------|
|------------------------------------------------------------------|
|------------------------------------------------------------------|
       on the other side           of this town
|------------------------------------17--17--17--17--17-|
|----------------15-15-15-15-15-15-15--15--15--15--15---|
|------(start at 6th drum beat)-------------------------|
|-------------------------------------------------------|
|-------------------------------------------------------|
|-------------------------------------------------------|

|---17--17--17--19--19--19--19--19--15--15--17--19--19--19--19--19-|
|-15--15--15--15--15--15--15--15--15--15--15--15--15--15--15--15---|
|------------------------------------------------------------------|
|------------------------------------------------------------------|
|------------------------------------------------------------------|
|------------------------------------------------------------------|

pre-chorus
  please....          don't....
|-10-10-10-10-10------10-10-10-10-10-|
|-8--8--8--8--8-------7--7--7--7--7--|
|------------------------------------|
|------------------------------------|
|------------------------------------|
|------------------------------------|
  help....                me....
|--12-12-12-12-12-12-12-12-10-10-10-10-10-10-10-10-|
|-8--8--8--8--8--8--8--8--8--8--8--8--8--8--8--8---|
|--------------------------------------------------|
|--------------------------------------------------|
|--------------------------------------------------|
|--------------------------------------------------|

  please....          don't....
|-10-10-10-10-10------10-10-10-10-10-|
|-8--8--8--8--8-------7--7--7--7--7--|
|------------------------------------|
|------------------------------------|
|------------------------------------|
|------------------------------------|
  help....                me....      stop puttin me
|--12-12-12-12-12-12-12-12-10-10-10-10-10-10-10-10-|
|-8--8--8--8--8--8--8--8--8--8--8--8--8--8--8--8---|
|--------------------------------------------------|
|--------------------------------------------------|
|--------------------------------------------------|
|--------------------------------------------------|

chorus
  down          cause i won't  ever.....    understand.....
|-----------------------------------------------------------------|
|-----------------------------------------------------------------|
|-----------------------------------------------------------------|
|-2-2-2-2-2-2-2-2-2-2-2-2-2-2-2-2-0-0-0-0-0-0-0-0-0-0-0-0-0-0-0-0-|
|-2-2-2-2-2-2-2-2-2-2-2-2-2-2-2-2-0-0-0-0-0-0-0-0-0-0-0-0-0-0-0-0-|
|-2-2-2-2-2-2-2-2-2-2-2-2-2-2-2-2-0-0-0-0-0-0-0-0-0-0-0-0-0-0-0-0-|

stop panicking stop panicking
|---------------------------|
|---------------------------|
|-12-----11-----12---11-----|
|-10-----10-----10---10---0-|
|-10-----10-----10---10---0-|
|-10X8---10X8---10X8-10X7-0-|

                i see it in your eyes         i see it in your mind
|-----------------------------------------------------------------|
|-----------------------------------------------------------------|
|-----------------------------------------------------------------|
|-2-2-2-2-2-2-2-2-2-2-2-2-2-2-2-2-0-0-0-0-0-0-0-0-0-0-0-0-0-0-0-0-|
|-2-2-2-2-2-2-2-2-2-2-2-2-2-2-2-2-0-0-0-0-0-0-0-0-0-0-0-0-0-0-0-0-|
|-2-2-2-2-2-2-2-2-2-2-2-2-2-2-2-2-0-0-0-0-0-0-0-0-0-0-0-0-0-0-0-0-|

stop panicking stop panicking
|---------------------------|
|---------------------------|
|-12-----11-----12---11-----|
|-10-----10-----10---10---0-|
|-10-----10-----10---10---0-|
|-10X8---10X8---10X8-10X7-0-|

          hold..............on
|---------------------------------------------|
|---------------------------------------------|
|---------------------------12-----11----12---|
|-2-2-2-2-2----2-0-0-0-0----10-----10----10---|
|-2-2-2-2-2----2-0-0-0-0----10-----10----10---|
|-2-2-2-2-2----2-0-0-0-0----10X16--10X9--10X7-|

         hold..............on
|---------------------------------------------|
|---------------------------------------------|
|---------------------------12-----11----12---|
|-2-2-2-2-2----2-0-0-0-0----10-----12----10---|
|-2-2-2-2-2----2-0-0-0-0----10-----10----10---|
|-2-2-2-2-2----2-0-0-0-0----10X16--10X6--10X9-|

         if i see this all again   i'll try to take my
|-10-10-10-10-10-10-10-10-10-10-10-10-10-10-10-10--|
|---8--8--8--8--8--8--8--8--7--7--7--7--7--7--7--7-|
|--------------------------------------------------|
|--------------------------------------------------|
|--------------------------------------------------|
|--------------------------------------------------|
  time       i wonder how fast you could try
|-12-12-12-12-12-12-12-12-10-10-10-10-10-10-10-10--|
|---8--8--8--8--8--8--8--8--8--8--8--8--8--8--8--8-|
|--------------------------------------------------|
|--------------------------------------------------|
|--------------------------------------------------|
|--------------------------------------------------|

solo 
guitar-1
  t    t    t    t    t    t    t    t    t    t    t    t
|-15---14---15---17---15---14---19---17---22---14---10---12-------|
|-----------------------------------------------------------------|
|-----------------------------------------------------------------|
|-------------------------------------------------------------10\-|
|-------------------------------------------------------------10\-|
|-------------------------------------------------------------10\-| 

guitar-2 (not what is done in the recording but slightly along the same 
lines) 
|----------------------------------------------------------------------|
|----------------------------------------------------------------------|
|----------------------------------------------------------------------|
|-5------0------10------5------0------10------5------0------10-----10\-|
|-5------0------10------5------0------10------5------0------10-----10\-|
|-5X16---0X16---10X32---5X16---0X16---10X32---5X16---0X16---10X28--10\-|   

|-------------------------------------------------------------------------|
|-------------------------------------------------------------------------|
|-------------------------------------------------------------------------|
|-0---10-12---10-12---3-2-0---10-11-12---0---10-12---10-12---3-2-0---0-10-|
|-0---10-12---10-12---3-2-0---10-11-12---0---10-12---10-12---3-2-0---0-10-|
|-0---10-12---10-12---3-2-0---10-11-12---0---10-12---10-12---3-2-0---0-10-|

|--------------------------------------------------------------------------|
|--------------------------------------------------------------------------|
|--------------------------------------------------------------------------|
|-0---10-12---10-12---3-2-0---10-11-12---0---10-12---10-12---3-2-0---0-10\-|
|-0---10-12---10-12---3-2-0---10-11-12---0---10-12---10-12---3-2-0---0-10\-|
|-0---10-12---10-12---3-2-0---10-11-12---0---10-12---10-12---3-2-0---0-10\-|


|---
|---
|---
|-2-
|-2- hold and let fade out...
|-2-

end.
Tap to rate this tab
# A B C D E F G H I J K L M N O P Q R S T U V W X Y Z