Song name
# A B C D E F G H I J K L M N O P Q R S T U V W X Y Z

Fightstar - Out Swiming In The Flood tab

standard tunning

may not be the exact tab but it is close, all of the otehr tabs are in dropped tunnning 
this one sounds good without, i figured it out listenin n playin to the song, so here goes

intro:
e-----------------------------------------------------------------------|
b-----------------------------------------------------------------------|
g-----------------------------------------------------------------------|
d------9---------9----------9-------9-----------------------------------|
a--7-------7-----------7-------7----------------------------------------|
e-----------------------------------------------------------------------|


e------------------------------------------------------------------------|
b------------------------------------------------------------------------|
g------------------------------------------------------------------------|
d--------6----------6-------------6--------------6-----------4-------4---|
a---9---------9------------4--------------4-------------2---------2------|
e------------------------------------------------------------------------|

i dont know the pre-chorus sorry guys

chorus


e--------------------------------------------------------------------------------|
b--------------------------------------------------------------------------------|
g--------------------------------------------------------------------------------|
d----66666---44444---22222-------------------------------------------------------|
a----66666---44444---22222-------------------------------------------------------|
e----44444---22222---00000-------------------------------------------------------|
Tap to rate this tab
 
# A B C D E F G H I J K L M N O P Q R S T U V W X Y Z