Song name
# A B C D E F G H I J K L M N O P Q R S T U V W X Y Z

Fightstar - Paint Your Target tab

Im 99.9% sure that this is 98.9% correct, but if im wrong please leave a comment and i'l 
it! But i hope i dont have to!

Enjoy!

Intro 1:

 |Guitar 1
e|------------0-------------------0----------------0---------------0------|
B|------------------------------------------------------------------------|
G|-------11----------11------11----------------4---------4-----4----------|
D|-----9----9------9-------9----9------9-----2---2-----2-----2---2-----2--|
A|--11----------11------11----------11-----4---------4-----4---------4----|
D|------------------------------------------------------------------------|

e|------------0-------------------0----------------0----------------------|
B|------------------------------------------------------------------------|
G|-------11----------11------11----------------4---------4----------------|
D|-----9----9------9-------9----9------9-----2---2-----2------------------|
A|--11----------11------11----------11-----4---------4--------------------|
D|------------------------------------------------------------------------|

Intro 2:

 |Guitar 1
e|------------------------------------------------------------------------|
B|------------------------------------------------------------------------|
G|------------------------------------------------------------------------|
D|-2-2-2-2-2-2-2-2-2-2-2-2-2-2-2-2--11-11-11-11-11-11-11-11-7-7-7-7-7-70--|
A|-2-2-2-2-2-2-2-2-2-2-2-2-2-2-2-2--11-11-11-11-11-11-11-11-7-7-7-7-7-70--|
D|-2-2-2-2-2-2-2-2-2-2-2-2-2-2-2-2--11-11-11-11-11-11-11-11-7-7-7-7-7-70--|
 |                                                                        |
 |Guitar 2                                                                |
e|------------------------------------------------------------------------|
B|------------------------------------------------------------------------|
G|-------------------------8888888----------------------------------------|
D|-2-2-2-2-2-2-2-2-2-2-2-2-xxxxxxx--11-11-11-11-11-11-11-11-7-7-7-7-7-70--|
A|-2-2-2-2-2-2-2-2-2-2-2-2-6666666--11-11-11-11-11-11-11-11-7-7-7-7-7-70--|
D|-2-2-2-2-2-2-2-2-2-2-2-2----------11-11-11-11-11-11-11-11-7-7-7-7-7-70--|


e|------------------------------------------------------------------------|
B|------------------------------------------------------------------------|
G|------------------------------------------------------------------------|
D|-2-2-2-2-2-2-2-2-2-2-2-2-2-2-2-2--11-11-11-11-11-11-11-11-7-7-7-7-7-7-7-|
A|-2-2-2-2-2-2-2-2-2-2-2-2-2-2-2-2--11-11-11-11-11-11-11-11-7-7-7-7-7-7-7-|
D|-2-2-2-2-2-2-2-2-2-2-2-2-2-2-2-2--11-11-11-11-11-11-11-11-7-7-7-7-7-7-7-|
 |                                                                        |
 |                                                                        |
e|------------------------------------------------------------------------|
B|------------------------------------------------------------------------|
G|-------------------------8888888----------------------------------------|
D|-2-2-2-2-2-2-2-2-2-2-2-2-xxxxxxx--11-11-11-11-11-11-11-11-7-7-7-7-7-7-7-|
A|-2-2-2-2-2-2-2-2-2-2-2-2-6666666--11-11-11-11-11-11-11-11-7-7-7-7-7-7-7-|
D|-2-2-2-2-2-2-2-2-2-2-2-2----------11-11-11-11-11-11-11-11-7-7-7-7-7-7-7-|

Verse 1:

e|-----------0-------------------0------------0-------------------0-------|
B|------------------------------------------------------------------------|
G|------11----------11------11-----------11----------11-------11----------|
D|----9----9------9-------9----9-------9----9------9--------9----9--------|
A|-11----------11------11-----------11----------11-------11---------------|
D|------------------------------------------------------------------------|
 |                                                                        |
e|------------------------------------------------------------------------|
B|------------------------------------------------------------------------|
G|------------------------------------------------------------------------|
D|-2~---------------------------------------------------------------------|
A|-2~---------------------------------------------------------------------|
D|-2~---------------------------------------------------------------------|

  You hide it every time you move...
  You dance under the question mark...

e|---------0---------------0---------0---------------0-------|
B|-----------------------------------------------------------|
G|-----4---------4-----4---------4---------4-----4-----------|
D|---2---2-----2-----2---2-----2---2-----2-----2---2---------|
A|-4---------4-----4---------4---------4-----4---------------|
D|-----------------------------------------------------------|
 |                                                           |
e|-----------------------------------------------------------|
B|-----------------------------------------------------------|
G|-----------------------------------------------------------|
D|-11~-----------------------7~------------------------------|
A|-11~-----------------------7~------------------------------|
D|-11~-----------------------7~------------------------------| x2

  Impatience waits around for me,
  Without even trying.

Bridge:

e|--------------------------------------0---------------0-|---|
B|--------------------------------------------------------|---|
G|----11-11-11-11-11-11-11-11-------4---------4-----4-----|---|
D|----x--x--x--x--x--x--x--x------2---2-----2-----2---2---|-0-|
A|----9--9--9--9--9--9--9--9----4---------4-----4---------|-0-|
D|--------------------------------------------------------|-0-|
 |P.M .  .  .  .  .  .  .                                 |   |
 |                                                        |   |
e|--------------------------------------------------------|---|
B|--------------------------------------------------------|---|
G|--------------------------------------------------------|---|
D|----2--2--2--2--2--2--2--2------------------------------|-0-|
A|----2--2--2--2--2--2--2--2------------------------------|-0-|
D|----2--2--2--2--2--2--2--2------------------------------|-0-| X2
 |P.M .  .  .  .  .  .  .

  Im just not sure its gonna work,
  Im just not sure its gonna work.

Chorus:

e|----------------------------------------------------------------------------|
B|----------------------------------------------------------------------------|
G|----------------------------------------------------------------------------|
D|-2-2-2-2-2-2-2-2-11-11-11-11-11-11-11-11-9-9-9-9-9-9-9-9-7-7-7-7-7-7-7-7----|
A|-2-2-2-2-2-2-2-2-11-11-11-11-11-11-11-11-9-9-9-9-9-9-9-9-7-7-7-7-7-7-7-7----|
D|-2-2-2-2-2-2-2-2-11-11-11-11-11-11-11-11-9-9-9-9-9-9-9-9-7-7-7-7-7-7-7-7|---|
 |
e|------------------------------------------------------------------------|
B|------------------------------------------------------------------------|
G|------------------------------------------------------------------------|
D|-2-2-2-2-2-2-2-2-11-11-11-11-11-11-11-11-9-9-9-9-9-9-9-9-7-7-7-7-7-7-7-7|
A|-2-2-2-2-2-2-2-2-11-11-11-11-11-11-11-11-9-9-9-9-9-9-9-9-7-7-7-7-7-7-7-7|
D|-2-2-2-2-2-2-2-2-11-11-11-11-11-11-11-11-9-9-9-9-9-9-9-9-7-7-7-7-7-7-7-7|

  You can burn it all, rally round the table if you want to, just to argue out the last scenes of us.
  You can end it all, im sorry enough to tell you that im okay, and im never gonna see you again.

Verse 2:

e|-----------0-------------------0------------0-------------------0-------|
B|------------------------------------------------------------------------|
G|------11----------11------11-----------11----------11-------11----------|
D|----9----9------9-------9----9-------9----9------9--------9----9--------|
A|-11----------11------11-----------11----------11-------11---------------|
D|------------------------------------------------------------------------|
 |                                                                        |
e|------------------------------------------------------------------------|
B|------------------------------------------------------------------------|
G|------------------------------------------------------------------------|
D|-2~---------------------------------------------------------------------|
A|-2~---------------------------------------------------------------------|
D|-2~---------------------------------------------------------------------|

  The killers walking amoungst us...
  You cradle over your mistakes

e|---------0---------------0---------0---------------0-------|
B|-----------------------------------------------------------|
G|-----4---------4-----4---------4---------4-----4-----------|
D|---2---2-----2-----2---2-----2---2-----2-----2---2---------|
A|-4---------4-----4---------4---------4-----4---------------|
D|-----------------------------------------------------------|
 |                                                           |
 |                                                           |
e|-----------------------------------------------------------|
B|-----------------------------------------------------------|
G|-----------------------------------------------------------|
D|-11~-----------------------7~------------------------------|
A|-11~-----------------------7~------------------------------|
D|-11~-----------------------7~------------------------------| x2

  Look around they'll find your ashes,
  And every heart you'll ever break.

Bridge:

e|--------------------------------------0---------------0-|---|
B|--------------------------------------------------------|---|
G|----11-11-11-11-11-11-11-11-------4---------4-----4-----|---|
D|----x--x--x--x--x--x--x--x------2---2-----2-----2---2---|-0-|
A|----9--9--9--9--9--9--9--9----4---------4-----4---------|-0-|
D|--------------------------------------------------------|-0-|
 |P.M .  .  .  .  .  .  .                                 |   |
 |                                                        |   |
e|--------------------------------------------------------|---|
B|--------------------------------------------------------|---|
G|--------------------------------------------------------|---|
D|----2--2--2--2--2--2--2--2------------------------------|-0-|
A|----2--2--2--2--2--2--2--2------------------------------|-0-|
D|----2--2--2--2--2--2--2--2------------------------------|-0-| X2
 |P.M .  .  .  .  .  .  .

  Im just not sure it's gonna work,
  Im just not sure it's gonna work.

Chorus:

e|--------------------------------------------------------------------------|
B|--------------------------------------------------------------------------|
G|--------------------------------------------------------------------------|
D|-2-2-2-2-2-2-2-2-11-11-11-11-11-11-11-11-9-9-9-9-9-9-9-9-7-7-7-7-7-7-7-70-|
A|-2-2-2-2-2-2-2-2-11-11-11-11-11-11-11-11-9-9-9-9-9-9-9-9-7-7-7-7-7-7-7-70-|
D|-2-2-2-2-2-2-2-2-11-11-11-11-11-11-11-11-9-9-9-9-9-9-9-9-7-7-7-7-7-7-7-70-|
 |
e|--------------------------------------------------------------------------|
B|--------------------------------------------------------------------------|
G|--------------------------------------------------------------------------|
D|-2-2-2-2-2-2-2-2-11-11-11-11-11-11-11-11-9-9-9-9-9-9-9-9-7-7-7-7-7-7-7-70-|
A|-2-2-2-2-2-2-2-2-11-11-11-11-11-11-11-11-9-9-9-9-9-9-9-9-7-7-7-7-7-7-7-70-|
D|-2-2-2-2-2-2-2-2-11-11-11-11-11-11-11-11-9-9-9-9-9-9-9-9-7-7-7-7-7-7-7-70-|

  You can burn it all, rally round the table if you want to, just to argue out the last scenes of us.
  You can end it all, im sorry enough to tell you that im okay, and im never gonna see you...

Breakdown 1:

e|--------------------------------------------------------------------------|
B|--------------------------------------------------------------------------|
G|--------------------------------------------------------------------------|
D|----222222--2223\00--000000--0003\22--222222--2223\00--000000--0003\2-0---|
A|----222222--2223\00--000000--0003\22--222222--2223\00--000000--0003\2-0---|
D|----222222--2223\00--000000--0003\22--222222--2223\00--000000--0003\2-0---|
 |P.M ......  .... ..  ......  .... ..  ......  .... ..  ......  .... .
 |
e|--------------------------------------------------------------------------|
B|--------------------------------------------------------------------------|
G|--------------------------------------------------------------------------|
D|------------2223\00----------0003\22----------2223\00----------0003\2-0---|
A|------------2223\00----------0003\22----------2223\00----------0003\2-0---|
D|------------2223\00----------0003\22----------2223\00----------0003\2 0---|
  P.M         .... ..          .... ..          .... ..          .... .

    Again!                              Again!        Never gonna see you..

Breakdown 2:

e|--0~------0~------0~----------|
B|--0~------0~------0~----------|
G|-11~------4~-----11~------9---|
D|--9~------2~------9~------9---|
A|-11~------4~-----11~------7---|
D|------------------------------|

  You stumble through questions, that you could never answer,
  That barrel is loaded, so go and paint your target!

Outro:

e|--------------------------------------------------------------------------|
B|--------------------------------------------------------------------------|
G|--------------------------------------------------------------------------|
D|-2-2-2-2-2-2-2-2-11-11-11-11-11-11-11-11-9-9-9-9-9-9-9-9-7-7-7-7-7-7-7-7--|
A|-2-2-2-2-2-2-2-2-11-11-11-11-11-11-11-11-9-9-9-9-9-9-9-9-7-7-7-7-7-7-7-7--|
D|-2-2-2-2-2-2-2-2-11-11-11-11-11-11-11-11-9-9-9-9-9-9-9-9-7-7-7-7-7-7-7-7--|
 |
e|--------------------------------------------------------------------------|
B|--------------------------------------------------------------------------|
G|--------------------------------------------------------------------------|
D|-2-2-2-2-2-2-2-2-11-11-11-11-11-11-11-11-9-9-9-9-9-9-9-9-7-7-7-7-7-7-7-7--|
A|-2-2-2-2-2-2-2-2-11-11-11-11-11-11-11-11-9-9-9-9-9-9-9-9-7-7-7-7-7-7-7-7--|
D|-2-2-2-2-2-2-2-2-11-11-11-11-11-11-11-11-9-9-9-9-9-9-9-9-7-7-7-7-7-7-7-7--|

  You stumble through questions, that you could never answer,
  That barrel is loaded, so go and paint your target!

e|--------------------------------------------------------------------------|
B|--------------------------------------------------------------------------|
G|--------------------------------------------------------------------------|
D|-2-2-2-2-2-2-2-2-11-11-11-11-11-11-11-11-9-9-9-9-9-9-9-9-7-7-7-7-7-7-7-7--|
A|-2-2-2-2-2-2-2-2-11-11-11-11-11-11-11-11-9-9-9-9-9-9-9-9-7-7-7-7-7-7-7-7--|
D|-2-2-2-2-2-2-2-2-11-11-11-11-11-11-11-11-9-9-9-9-9-9-9-9-7-7-7-7-7-7-7-7--|
 |
e|--------------------------------------------------------------------------|
B|--------------------------------------------------------------------------|
G|--------------------------------------------------------------------------|
D|-2-2-2-2-2-2-2-2-11-11-11-11-11-11-11-11-9-9-9-9-9-9-9-9-7-7-7-7-7-7-7-7--|
A|-2-2-2-2-2-2-2-2-11-11-11-11-11-11-11-11-9-9-9-9-9-9-9-9-7-7-7-7-7-7-7-7--|
D|-2-2-2-2-2-2-2-2-11-11-11-11-11-11-11-11-9-9-9-9-9-9-9-9-7-7-7-7-7-7-7-7--|

  You can burn it all, rally round the table if you want to, just to argue out the last scenes of us..
  (So and again you stomp around with beautiful falls,)

e|--------------------------------------------------------------------------|
B|--------------------------------------------------------------------------|
G|---------------------------------------------------------9~---------------|
D|-2-2-2-2-2-2-2-2-11-11-11-11-11-11-11-11-9-9-9-9-9-9-9-9-9~---------------|
A|-2-2-2-2-2-2-2-2-11-11-11-11-11-11-11-11-9-9-9-9-9-9-9-9-7~---------------|
D|-2-2-2-2-2-2-2-2-11-11-11-11-11-11-11-11-9-9-9-9-9-9-9-9-7~---------------|
 | . . . . . . . .  .  .  .  .  .  .  .  . . . . . . . . .
 |
e|--------------------------------------------------------------------------|
B|--------------------------------------------------------------------------|
G|---------------------------------------------------------9~---------------|
D|-2-2-2-2-2-2-2-2-11-11-11-11-11-11-11-11-9-9-9-9-9-9-9-9-9~---------------|
A|-2-2-2-2-2-2-2-2-11-11-11-11-11-11-11-11-9-9-9-9-9-9-9-9-7~---------------|
D|-2-2-2-2-2-2-2-2-11-11-11-11-11-11-11-11-9-9-9-9-9-9-9-9-7~---------------|
   . . . . . . . .  .  .  .  .  .  .  .  . . . . . . . . .

  You can end it all, im sorry enough to tell you that im okay!
  (So and again you stomp around with beautiful falls!)

End!

Thats it, hope its ok!
Tap to rate this tab
# A B C D E F G H I J K L M N O P Q R S T U V W X Y Z