Song name
# A B C D E F G H I J K L M N O P Q R S T U V W X Y Z

Fightstar - Waste A Moment Acoustic tab

-------------------------------------------------------------------------------
			     Waste A Moment Acoustic - Fightstar
-------------------------------------------------------------------------------
Tabbed by: Ciaran Plummer
Email: just_ciaran@hotmail.co.uk


Tuning: drop C, d/A/F/C/G/C

-=>Guitar One, Charlie Simpson<=-

Intro
d|--------------------------|
A|--------------------------|
F|--------------------------|
C|-7c----7c----7c----7c-----|
G|-7c----8c----7c----8c-----|
C|-------------------0c-----|


Intro/Chorus
d|-----------------------------------|
A|-----------------------------------|
F|--5c------9c-----10-10-10--9-9-9---|
C|--3c------7c------x--x--x--x-x-x---| (Times 2)
G|--3c------7c------8--8--8--7-7-7---|
C|--3c------7c-----------------------|
 |
d|------------------|
A|------------------|
F|--9~------5~------|
C|--7~------3~------|
G|--7~------3~------|
C|--7~------3~------|


Verse
d|------------------------------------|
A|------------------------------------|
F|--9c------12c------16c------5c------|
C|--7c------10c------14c------3c------| (Times 2)
G|--7c------10c------14c------3c------|
C|--7c------10c------14c------3c------|


Pre-Chorus
d|--------------------------|
A|--------------------------|
F|--------------------------|
C|-7c----7c----7c----7c-----|
G|-7c----8c----7c----8c-----|
C|-------------------0c-----|


Chorus
d|-----------------------------------|
A|-----------------------------------|
F|--5c------9c-----10-10-10--9-9-9---|
C|--3c------7c------x--x--x--x-x-x---| (Times 2)
G|--3c------7c------8--8--8--7-7-7---|
C|--3c------7c-----------------------|
 |
d|---------------|
A|---------------|
F|--5c------9~---|
C|--3c------7~---|
G|--3c------7~---|
C|--3c------7~---|


Verse
d|------------------------------------|
A|------------------------------------|
F|--9c------12c------16c------5c------|
C|--7c------10c------14c------3c------|
G|--7c------10c------14c------3c------|
C|--7c------10c------14c------3c------|


Pre-Chorus
d|-----------------------------------|
A|-----------------------------------|
F|--9c------12c------9c------7c------|
C|--7c------10c------7c------5c------|
G|--7c------10c------7c------5c------|
C|--7c------10c------7c------5c------|


Chorus
d|-----------------------------------|
A|-----------------------------------|
F|--5c------9c-----10-10-10--9-9-9---|
C|--3c------7c------x--x--x--x-x-x---| (Times 2)
G|--3c------7c------8--8--8--7-7-7---|
C|--3c------7c-----------------------|


Breakdown
d|-----------------------------------|
A|-----------------------------------|
F|--5c------9c-----10-10-10--9-9-9---|
C|--3c------7c------x--x--x--x-x-x---| (Times 3)
G|--3c------7c------8--8--8--7-7-7---|
C|--3c------7c-----------------------|


Outro
d|---------------------------------------------------|
A|---------------------------------------------------|
F|--12c------7c------5-x-x-x---------5-x-x-x---------|
C|--10c------5c------3-x-x-x-0~-0c---3-x-x-x-0~-0c---|
G|--10c------5c------3-x-x-x-0~-0c---3-x-x-x-0~-0c---|
C|--10c------5c------3-x-x-x-0~-0c---3-x-x-x-0~-0c---|
 |
d|-----------------------------------------------------------------------|
A|-----------------------------------------------------------------------|
F|--9c------12c------5-x-x-x-5---5-5-5-----------------------------------|
C|--7c------10c------3-x-x-x-3---3-3-3-----------------------------------|
G|--7c------10c------3-x-x-x-3---3-3-3-----------------------------------|
C|--7c------10c------3-x-x-x-3---3-3-3--0-0-0-0-0-0-0-0-0-0-0-0-0-0-0-0--|
 |
d|-----------------------------------------------------|
A|-----------------------------------------------------|
F|-5-x-x-x-5---5-5-5-----------------------------------|
C|-3-x-x-x-3---3-3-3-----------------------------------|
G|-3-x-x-x-3---3-3-3-----------------------------------|
C|-3-x-x-x-3---3-3-3--0-0-0-0-0-0-0-0-0-0-0-0-0-0-0-0--|
 |
d|---------------|
A|---------------|
F|-5-x-x-x-------|
C|-3-x-x-x-0~----|
G|-3-x-x-x-0~----|
C|-3-x-x-x-0~----|


*****************************************************************************************

-=>Guitar Two, Alex Westaway<=-

Intro
d|---------------------------|
A|---------------------------|
F|-----Rest-While-Guitar-----|
C|--------One-Plays----------|
G|---------------------------|
C|---------------------------|


Intro/Chorus
d|-----------------------------------|
A|-----------------------------------|
F|--5c------9c-----10-10-10--9-9-9---|
C|--3c------7c------x--x--x--x-x-x---| (Times 2)
G|--3c------7c------8--8--8--7-7-7---|
C|--3c------7c-----------------------|
 |
d|---------------------------|
A|---------------------------|
F|-----Rest-While-Guitar-----|
C|--------One-Plays----------|
G|---------------------------|
C|---------------------------|

Verse (All Times 2)
d|-------------------------------------------------------------------------|
A|-------------------------------------------------------------------------|
F|-------12--------12-------12---------------12-------11-------11----------|
C|---10----------10-------10-----10--10--10---------10-------10----10--10--|
G|-10--10------10-------10---------10--10--10-----10-------10--------10----|
C|-------------------------------------------------------------------------|
 |
d|---------------------------------------------------------------------|
A|---------------------------------------------------------------------|
F|-------12--------12-------12----------------9------9------9----------|
C|---10----------10-------10-----10--10----7--------7------7----7---7--|
G|-10--10------10-------10---------10----7---7-----7------7-------7----|
C|---------------------------------------------------------------------|


Pre-Chorus
d|-------------------------------------------------------------------------|
A|-------------------------------------------------------------------------|
F|-------12--------12-------12---------------12-------11-------11----------|
C|---10----------10-------10-----10--10--10---------10-------10----10--10--|
G|-10--10------10-------10---------10--10--10-----10-------10--------10----|
C|-------------------------------------------------------------------------|
 |
d|-------------------------------------------------------------------------|
A|-------------------------------------------------------------------------|
F|-------12--------12-------12---------------12-------11-------11----------|
C|---10----------10-------10-----10--10--10---------10-------10----10--10--|
G|-10--10------10-------10---------10--10--10-----10-------10--------10----|
C|-------------------------------------------------------------------------|             
                                              .  .


Chorus
d|-----------------------------------|
A|-----------------------------------|
F|--5c------9c-----10-10-10--9-9-9---|
C|--3c------7c------x--x--x--x-x-x---| (Times 2)
G|--3c------7c------8--8--8--7-7-7---|
C|--3c------7c-----------------------|
 |
d|------------------|
A|------------------|
F|--5c---7c----9~---|
C|--3c---x-----x----|
G|--3c---5c----7~---|
C|--3c--------------|


Verse (All Times 2)
d|-------------------------------------------------------------------------|
A|-------------------------------------------------------------------------|
F|-------12--------12-------12---------------12-------11-------11----------|
C|---10----------10-------10-----10--10--10---------10-------10----10--10--|
G|-10--10------10-------10---------10--10--10-----10-------10--------10----|
C|-------------------------------------------------------------------------|
 |
d|---------------------------------------------------------------------|
A|---------------------------------------------------------------------|
F|-------12--------12-------12----------------9------9------9----------|
C|---10----------10-------10-----10--10----7--------7------7----7---7--|
G|-10--10------10-------10---------10----7---7-----7------7-------7----|
C|---------------------------------------------------------------------|


Pre-Chorus
d|-------------------------------------------------------------------------|
A|-------------------------------------------------------------------------|
F|-------12--------12-------12---------------12-------11-------11----------|
C|---10----------10-------10-----10--10--10---------10-------10----10--10--| (Times 2)
G|-10--10------10-------10---------10--10--10-----10-------10--------10----|
C|-------------------------------------------------------------------------|


Chorus
d|-----------------------------------|
A|-----------------------------------|
F|--5c------9c-----10-10-10--9-9-9---|
C|--3c------7c------x--x--x--x-x-x---| (Times 2)
G|--3c------7c------8--8--8--7-7-7---|
C|--3c------7c-----------------------|


Breakdown
d|-----------------------------------|
A|-----------------------------------|
F|--5c------9c-----10-10-10--9-9-9---|
C|--3c------7c------x--x--x--x-x-x---| (Times 3)
G|--3c------7c------8--8--8--7-7-7---|
C|--3c------7c-----------------------|


Outro
d|---------------------------------------------------|
A|---------------------------------------------------|
F|--12c------7c------5-x-x-x---------5-x-x-x---------|
C|--10c------5c------3-x-x-x-0~-0c---3-x-x-x-0~-0c---|
G|--10c------5c------3-x-x-x-0~-0c---3-x-x-x-0~-0c---|
C|--10c------5c------3-x-x-x-0~-0c---3-x-x-x-0~-0c---|
 |
d|----------------------------------------------|
A|----------------------------------------------|
F|--9c------12c-----5-x-x-x-5---5-5-5---7c------|
C|--7c------10c-----3-x-x-x-3---3-3-3---x-------|
G|--7c------10c-----3-x-x-x-3---3-3-3---5c------|
C|--7c------10c-----3-x-x-x-3---3-3-3-----------|
 |
d|-----------------------------|
A|-----------------------------|
F|-5-x-x-x-5---5-5-5---7c------|
C|-3-x-x-x-3---3-3-3---x-------|
G|-3-x-x-x-3---3-3-3---5c------|
C|-3-x-x-x-3---3-3-3-----------|
 |
d|-----------------|
A|-----------------|
F|--5-x-x-x--------|
C|--x-x-x-x--0~----|
G|--3-x-x-x--0~----|
C|----x-x-x--0~----|

| /  slide up
| \  slide down
| h  hammer-on
| p  pull-off
| ~  let ring
| +  harmonic
| x  Mute note
| c  Continuos strumming
| .  Palm mute
| s  slide (to next note)
| =  bridge gap for slide or hammer on's, pull off's.
Tap to rate this tab
# A B C D E F G H I J K L M N O P Q R S T U V W X Y Z