Song name
# A B C D E F G H I J K L M N O P Q R S T U V W X Y Z

Fightstar - Carry Her tab

i wasnt sure if i should put this under fightstar or not, but i have only tabbed up to
the chorus, feel free to add on.

Eb|-------------------|            
Bb|-----0-----0-------|           
Gb|---3-----3------3--|           
Db|-------------------|           
Ab|-------------------| (Times 6) 
Eb|-4-----4------4----|           

Eb|---4-------4------4--|----4-----4--------|
Bb|-----0-------0-------|------0-----0---0--|
Gb|---------------------|-------------------|
Db|---------------------|-------------------|
Ab|---------------------|-------------------|
Eb|--2------2------2----|--2-----2-----2----|

Eb|------------------|            
Bb|-----0-----0------|           
Gb|---3-----3-----3--|           
Db|------------------|           
Ab|------------------| (Times 2) 
Eb|-0-----0-----0----|

Eb|-------------------|------------------|         
Bb|-----0-----0-------|-----2-----2------|         
Gb|---3-----3------3--|---3-----3-----3--|
Db|-------------------|-1-----1-----1----| 
Ab|-------------------|------------------|
Eb|-4-----4------4----|------------------|
       
Eb|-----0-----0------| 
Bb|---7-----7-----7--| 
Gb|------------------|
Db|------------------|
Ab|-7-----7-----7----| (Times 2)
Eb|------------------|

Eb|-------------------|------------------|
Bb|-----0-----0-------|-----2-----2------|
Gb|---3-----3------3--|---3-----3-----3--|
Db|-------------------|-1-----1-----1----|
Ab|-------------------|------------------|
Eb|-4-----4------4----|------------------|

Eb|-------------------|            
Bb|-----0-----0-------|           
Gb|---3-----3------3--|           
Db|-------------------|           
Ab|-------------------| (Times 4) 
Eb|-4-----4------4----| 
Tap to rate this tab
 
# A B C D E F G H I J K L M N O P Q R S T U V W X Y Z