Song name
# A B C D E F G H I J K L M N O P Q R S T U V W X Y Z

Fightstar - Minerva Acoustic tab

Help us improve GuitareTab! Take a short survey!
tuning: standard E
e|---
b|---
g|---
d|---
a|---
e|---

intro/verse (finger plucking)
|------------------------------------------------------------------------|
|------------------------------------------------------------------------|
|---------6-----7-----------6-----7-----------6-----7-----------6-----7--|
|-7-----------------7-----------------7-----------------7----------------|
|-5-------4---------5-------4---------5-------4---------5-------4--------|
|------------------------------------------------------------------------|

chorus (either finger or pick, both sound good)
|-----------------------------------------------------------------|
|-----2---3-----------2---3----5------3---2-----------3---2----5--|
|---2-------------------------------------------------------------|
|-0-----------------4---------------2---------------2-------------|
|-----------------2---------------0---------------0---------------|
|-----------------------------------------------------------------|

electric plays this over chorus
|------------------------------------------------------------|
|-14-(14b-14-14b-14-14b-14-14b-14-14b-14-14b-14-14b-14-14b)--|
|-(pluck once then let ring)---------------------------------|
|------------------------------------------------------------|
|------------------------------------------------------------|
|------------------------------------------------------------|

|------------------------------------------------------------|
|-(14-14b-14-14b-14-14b-14-14b-14-14b-14-14b-14-14b-14-14b)--|
|------------------------------------------------------------|
|------------------------------------------------------------|
|------------------------------------------------------------|
|------------------------------------------------------------|

this part is added in the 2nd and 3rd chorus
|---------------------------------------------------------------------------|
|-17---19--(19b)---14-(14b-14-14b-14-14b-14-14b-14-14b-14-14b-14-14b-14-14--|b)
|---------------------------------------------------------------------------|
|---------------------------------------------------------------------------|
|---------------------------------------------------------------------------|
|---------------------------------------------------------------------------|

|------------------------------------------------------------|
|-(14-14b-14-14b-14-14b-14-14b-14-14b-14-14b-14-14b-14-14b)--|
|------------------------------------------------------------|
|------------------------------------------------------------|
|------------------------------------------------------------|
|------------------------------------------------------------|

bridge
|---------------------------------8---8---8---8---8---8---8---8--|
|10--10--10--10--10--10--10--10--10--10--10--10--10--10--10--10--|
|-7---7---7---7---7---7---7---7---9---9---9---9---9---9---9---9--|
|-0---0---0---0---0---0---0---0---7---7---7---7---7---7---7---7--|
|-0---0---0---0---0---0---0---0---0---0---0---0---0---0---0---0--|
|----------------------------------------------------------------|

|---------------------------------8---8---8---8---8---8---8---8--|
|10--10--10--10--10--10--10--10--10--10--10--10--10--10--10--10--|
|-7---7---7---7---7---7---7---7---9---9---9---9---9---9---9---9--|
|-0---0---0---0---0---0---0---0---7---7---7---7---7---7---7---7--|
|-0---0---0---0---0---0---0---0---0---0---0---0---0---0---0---0--|
|----------------------------------------------------------------|
Related for Minerva Acoustic tab