Guitaretab - guitar tabs
Song name
# A B C D E F G H I J K L M N O P Q R S T U V W X Y Z

Fightstar - Take You Home tab

Finally got my net sorted so here is the whole song. Spent a while doing this and, like 
other tabs it's not perfect but anyway. Effects make it a bit tricky for me to hear some stuff.

Guitar 1
Verse
 (x4)                  (x2)           (x2)
e|-----------------|-----------------|-----------------|
B|---------2-------|---------2-------|---------2-------|
G|-----4-----4---4-|-----4-----4---4-|-----4-----4---4-|
D|---4---4-----4---|---4---4-----4---|---4---4-----4---|
A|-2---------------|-----------------|-----------------|
E|-----------------|-4---------------|-2---------------|

Guitar 2 towards end
(Effects make it tricky to hear)
e|---------------|
B|----7~-5~-4~-0~|
G|-4~------------|
D|---------------|
A|---------------|
E|---------------|

Pre Chorus G1
e|------------------------------------|
B|------------------------------------|
G|-11-11-11-11-11-11-11-11---99999999-|
D|-11-11-11-11-11-11-11-11---99999999-|
A|--9--9--9--9--9--9--9--9---77777777-|
E|------------------------------------|

G2
e|---------------------------------|
B|-7---7---7---7---5---5---5---5---|
G|---4---4---4-------4---4---4---4-|
D|---------------------------------|
A|---------------------------------|
E|---------------------------------|
[ Tab from: http://www.guitaretab.com/f/fightstar/87890.html ]
Chorus G1(Piano)
e|---------------------|
B|---------------------|
G|--------11-----------|
D|-9-11-9----(9)-11-9--|
A|---------------------|
E|---------------------|
G2
e|------------------|
B|------------------|
G|-8~-11~-----------|
D|-------9~11~-9~11~|
A|------------------|
E|------------------|

2nd verse (same as v1 but improvise something like this i dunno)
G1
   x3              x4
e|-------|-------|-------|
B|-2-----|-------|-2-----|
G|---4---|-----4-|---4---|
D|-----4-|---4---|-----4-|
A|-------|-------|-------|
E|-------|-4-----|-------|

G2
e|---------------|
B|----7~-5~-4~-0~|
G|-4~------------|
D|---------------|
A|---------------|
E|---------------|

e|-------------------|
B|-------------------|
G|-44444444----------|
D|-44444444-44444444-|
A|-22222222-44444444-|
E|----------22222222-|

Pre chorus  same as before


 Chorus G1(Piano)
e|---------------------|
B|---------------------|
G|--------11-----------|
D|-9-11-9----(9)-11-9--|
A|---------------------|
E|---------------------|

G2
e|------------------|------|
B|------------------|------|
G|-8~-11~-----------|-4~---|
D|-------9~11~-9~11~|-4~-4~|
A|------------------|-2~-4~|
E|------------------|----2~|


2.26  2.56 x4 (both Guitars)
e|-------------------|
B|-------------------|
G|-44444444----------|
D|-22222222-22222222-|
A|-22222222-22222222-|
E|----------00000000-|

Outro G1
e|----------------------|
B|--------------------2~|
G|-4~-----------------4~|
D|-4~-------6~---4~---4~|
A|-2~-------6~---4~---2~|
E|----------4~---2~-----|
G2
e|---2-0~------------|
B|------4-0----0-----|
G|-----------------4~|
D|-----------------4~|
A|-----------------2~|
E|-------------------|

Hope the tab is clear enough ;)
Related for Take You Home tab