Song name
# A B C D E F G H I J K L M N O P Q R S T U V W X Y Z

Fightstar - We Apologise For Nothing tab

Tabbed by: Benji James
Song: We Apologise For Nothing
Album: One Day Son, This Will All Be Yours

----------------------------------------------------------------------------

Okay, I did a guitar pro version of this song, and I wanted you guys who don't have 
pro, to have the tab.

Tuning: DADGBE

Guitar 1- Charlie Simpson


INTRO:
e|-------------------------------------------------|
B|-------------------------------------------------|
G|---[Rest While Guitar and bass play intro]-------|
D|-------------------------------------------------|
A|-------------------------------------------------|
D|-------------------------------------------------|

INTRO 2:
e|-------------------------------------------------|
B|-------------------------------------------------|
G|-------------------------------------------------|
D|----11-----11--9-7-7------11----11--9-7-7--------|
A|-12-----12-------------12----12------------------|
D|-------------------------------------------------|

e|-------------------------------------------------|
B|-------------------------------------------------|
G|-------9-9-9-9-9-9-9-9--6-6-6-6-6-6-6-6----------|
D|-------7-7-7-7-7-7-7-7--4-4-4-4-4-4-4-4----------|
A|-------7-7-7-7-7-7-7-7--4-4-4-4-4-4-4-4----------|
D|-------7-7-7-7-7-7-7-7--4-4-4-4-4-4-4-4----------|

VERSE 1:
e|-------------------------------------------------|
B|-------------------------------------------------|
G|----------[Rest While Guitar 2 play]-------------|
D|-------------------------------------------------|
A|-------------------------------------------------|
D|-------------------------------------------------|

e|-------------------------------------------------|
B|-------------------------------------------------|
G|-------------------------------------------------|
D|------0-0-12--12-11------0-12--11-12-11----------|  x2
A|--------------------12------------------12-------|
D|-------------------------------------------------|

e|-------------------------------------------------|
B|-------------------------------------------------|
G|----------[Rest While Guitar 2 plays]------------|
D|-------------------------------------------------|
A|-------------------------------------------------|
D|-------------------------------------------------|

e|-------------------------------------------------|
B|-------------------------------------------------|
G|-------------------------------------------------|
D|------0-0-12--12-11------0-12--11-12-11----------|  x2
A|--------------------12------------------12-------|
D|-------------------------------------------------|


PRE-CHORUS:
e|-------------------------------------------------|
B|-------------------------------------------------|
G|-------------------------------------------------|
D|--2-2--2-2-2-2-2-2-2---2-2--2-2-2-2-2-2-2--------|
A|--2-2--2-2-2-2-2-2-2---2-2--2-2-2-2-2-2-2--------|
D|--2-2--2-2-2-2-2-2-2---2-2--2-2-2-2-2-2-2--------|

e|-------------------------------------------------|
B|-------------------------------------------------|
G|-------------------------------------------------|
D|--4-4--4-4-4-4-4-4-4---4-4--4-4-4-4-4-4-4--------|
A|--4-4--4-4-4-4-4-4-4---4-4--4-4-4-4-4-4-4--------|
D|--4-4--4-4-4-4-4-4-4---4-4--4-4-4-4-4-4-4--------|

e|-------------------------------------------------|
B|-------------------------------------------------|
G|-------------------------------------------------|
D|--7-7--7-7-7-7-7-7-7---7-7--7-7-7-7-7-7-7--------|
A|--7-7--7-7-7-7-7-7-7---7-7--7-7-7-7-7-7-7--------|
D|--7-7--7-7-7-7-7-7-7---7-7--7-7-7-7-7-7-7--------|

e|-------------------------------------------------|
B|-------------------------------------------------|
G|-------------------------------------------------|
D|--0-0--0-0-0-0-0-0-0---0-0--0-0-0-0-0-0-0--------|
A|--0-0--0-0-0-0-0-0-0---0-0--0-0-0-0-0-0-0--------|
D|--0-0--0-0-0-0-0-0-0---0-0--0-0-0-0-0-0-0--------|

e|-------------------------------------------------|
B|-------------------------------------------------|
G|----------[Rest While Guitar 2 plays]------------|
D|-------------------------------------------------|
A|-------------------------------------------------|
D|-------------------------------------------------|

CHORUS:
e|-------------------------------------------------|
B|-------------------------------------------------|
G|--------2-2-2-2-2-2-2-2--4-4-4-4-4-4-4-4---------|
D|--------2-2-2-2-2-2-2-2--4-4-4-4-4-4-4-4---------|
A|--------0-0-0-0-0-0-0-0--2-2-2-2-2-2-2-2---------|
D|--------0-0-0-0-0-0-0-0--2-2-2-2-2-2-2-2---------|

e|-------------------------------------------------|
B|-------------------------------------------------|
G|--------6-6-6-6-6-6-6-6--9-9-9-9-9-9-9-9---------|
D|--------6-6-6-6-6-6-6-6--9-9-9-9-9-9-9-9---------|
A|--------4-4-4-4-4-4-4-4--7-7-7-7-7-7-7-7---------|
D|--------4-4-4-4-4-4-4-4--7-7-7-7-7-7-7-7---------|

e|-------------------------------------------------|
B|-------------------------------------------------|
G|--------2-2-2-2-2-2-2-2--4-4-4-4-4-4-4-4---------|
D|--------2-2-2-2-2-2-2-2--4-4-4-4-4-4-4-4---------|
A|--------0-0-0-0-0-0-0-0--2-2-2-2-2-2-2-2---------|
D|--------0-0-0-0-0-0-0-0--2-2-2-2-2-2-2-2---------|

e|-------------------------------------------------|
B|-------------------------------------------------|
G|--------6-6-6-6-6-6-6-6--9-9-9-9-9-9-9-9---------|
D|--------6-6-6-6-6-6-6-6--9-9-9-9-9-9-9-9---------|
A|--------4-4-4-4-4-4-4-4--7-7-7-7-7-7-7-7---------|
D|--------4-4-4-4-4-4-4-4--7-7-7-7-7-7-7-7---------|

e|-------------------------------------------------|
B|-------------------------------------------------|
G|-------------7-7-7-7-------------9-9-9-9---------|
D|--------0-0--x-x-x-x--------2-2--x-x-x-x---------|
A|--------0-0--5-5-5-5--------2-2--7-7-7-7---------|
D|--------0-0-----------------2-2------------------|

e|-------------------------------------------------|
B|-------------------------------------------------|
G|-------------11-11-11-11------------14-14-14-14--|
D|--------4-4--x--x--x--x--------7-7--x--x--x--x---|
A|--------4-4--9--9--9--9--------7-7--12-12-12-12--|
D|--------4-4--------------------7-7---------------|

e|-------------------------------------------------|
B|-------------------------------------------------|
G|--------2-2-2-2-2-2-2-2--4-4-4-4-4-4-4-4---------|
D|--------2-2-2-2-2-2-2-2--4-4-4-4-4-4-4-4---------|
A|--------0-0-0-0-0-0-0-0--2-2-2-2-2-2-2-2---------|
D|--------0-0-0-0-0-0-0-0--2-2-2-2-2-2-2-2---------|

e|-------------------------------------------------|
B|-------------------------------------------------|
G|--------6-6-6-6-6-6-6-6--2-----------------------|
D|--------6-6-6-6-6-6-6-6--2--[Let Ring]-----------|
A|--------4-4-4-4-4-4-4-4--0-----------------------|
D|--------4-4-4-4-4-4-4-4--0-----------------------|

POST-CHORUS:
e|-------------------------------------------------|
B|-------2-2-2-5--2-2-2--2-2-2-5--2-2-2------------|
G|-------------------------------------------------|
D|-------------------------------------------------|
A|-------------------------------------------------|
D|-------------------------------------------------|

VERSE 2:
e|-------------------------------------------------|
B|-------------------------------------------------|
G|----------[Rest While Guitar 2 play]-------------|
D|-------------------------------------------------|
A|-------------------------------------------------|
D|-------------------------------------------------|

e|-------------------------------------------------|
B|-------------------------------------------------|
G|-------------------------------------------------|
D|------0-0-12--12-11------0-12--11-12-11----------|  x2
A|--------------------12------------------12-------|
D|-------------------------------------------------|

e|-------------------------------------------------|
B|-------------------------------------------------|
G|----------[Rest While Guitar 2 plays]------------|
D|-------------------------------------------------|
A|-------------------------------------------------|
D|-------------------------------------------------|

e|-------------------------------------------------|
B|-------------------------------------------------|
G|-------------------------------------------------|
D|------0-0-12--12-11------0-12--11-12-11----------|  x2
A|--------------------12------------------12-------|
D|-------------------------------------------------|

PRE-CHORUS:
e|-------------------------------------------------|
B|-------------------------------------------------|
G|-------------------------------------------------|
D|--2-2--2-2-2-2-2-2-2---2-2--2-2-2-2-2-2-2--------|
A|--2-2--2-2-2-2-2-2-2---2-2--2-2-2-2-2-2-2--------|
D|--2-2--2-2-2-2-2-2-2---2-2--2-2-2-2-2-2-2--------|

e|-------------------------------------------------|
B|-------------------------------------------------|
G|-------------------------------------------------|
D|--4-4--4-4-4-4-4-4-4---4-4--4-4-4-4-4-4-4--------|
A|--4-4--4-4-4-4-4-4-4---4-4--4-4-4-4-4-4-4--------|
D|--4-4--4-4-4-4-4-4-4---4-4--4-4-4-4-4-4-4--------|

e|-------------------------------------------------|
B|-------------------------------------------------|
G|-------------------------------------------------|
D|--7-7--7-7-7-7-7-7-7---7-7--7-7-7-7-7-7-7--------|
A|--7-7--7-7-7-7-7-7-7---7-7--7-7-7-7-7-7-7--------|
D|--7-7--7-7-7-7-7-7-7---7-7--7-7-7-7-7-7-7--------|

e|-------------------------------------------------|
B|-------------------------------------------------|
G|-------------------------------------------------|
D|--0-0--0-0-0-0-0-0-0---0-0--0-0-0-0-0-0-0--------|
A|--0-0--0-0-0-0-0-0-0---0-0--0-0-0-0-0-0-0--------|
D|--0-0--0-0-0-0-0-0-0---0-0--0-0-0-0-0-0-0--------|

e|-------------------------------------------------|
B|-------------------------------------------------|
G|----------[Rest While Guitar 2 plays]------------|
D|-------------------------------------------------|
A|-------------------------------------------------|
D|-------------------------------------------------|

CHORUS:
e|-------------------------------------------------|
B|-------------------------------------------------|
G|--------2-2-2-2-2-2-2-2--4-4-4-4-4-4-4-4---------|
D|--------2-2-2-2-2-2-2-2--4-4-4-4-4-4-4-4---------|
A|--------0-0-0-0-0-0-0-0--2-2-2-2-2-2-2-2---------|
D|--------0-0-0-0-0-0-0-0--2-2-2-2-2-2-2-2---------|

e|-------------------------------------------------|
B|-------------------------------------------------|
G|--------6-6-6-6-6-6-6-6--9-9-9-9-9-9-9-9---------|
D|--------6-6-6-6-6-6-6-6--9-9-9-9-9-9-9-9---------|
A|--------4-4-4-4-4-4-4-4--7-7-7-7-7-7-7-7---------|
D|--------4-4-4-4-4-4-4-4--7-7-7-7-7-7-7-7---------|

e|-------------------------------------------------|
B|-------------------------------------------------|
G|--------2-2-2-2-2-2-2-2--4-4-4-4-4-4-4-4---------|
D|--------2-2-2-2-2-2-2-2--4-4-4-4-4-4-4-4---------|
A|--------0-0-0-0-0-0-0-0--2-2-2-2-2-2-2-2---------|
D|--------0-0-0-0-0-0-0-0--2-2-2-2-2-2-2-2---------|

e|-------------------------------------------------|
B|-------------------------------------------------|
G|--------6-6-6-6-6-6-6-6--9-9-9-9-9-9-9-9---------|
D|--------6-6-6-6-6-6-6-6--9-9-9-9-9-9-9-9---------|
A|--------4-4-4-4-4-4-4-4--7-7-7-7-7-7-7-7---------|
D|--------4-4-4-4-4-4-4-4--7-7-7-7-7-7-7-7---------|

e|-------------------------------------------------|
B|-------------------------------------------------|
G|-------------7-7-7-7-------------9-9-9-9---------|
D|--------0-0--x-x-x-x--------2-2--x-x-x-x---------|
A|--------0-0--5-5-5-5--------2-2--7-7-7-7---------|
D|--------0-0-----------------2-2------------------|

e|-------------------------------------------------|
B|-------------------------------------------------|
G|-------------11-11-11-11------------14-14-14-14--|
D|--------4-4--x--x--x--x--------7-7--x--x--x--x---|
A|--------4-4--9--9--9--9--------7-7--12-12-12-12--|
D|--------4-4--------------------7-7---------------|

e|-------------------------------------------------|
B|-------------------------------------------------|
G|--------2-2-2-2-2-2-2-2--4-4-4-4-4-4-4-4---------|
D|--------2-2-2-2-2-2-2-2--4-4-4-4-4-4-4-4---------|
A|--------0-0-0-0-0-0-0-0--2-2-2-2-2-2-2-2---------|
D|--------0-0-0-0-0-0-0-0--2-2-2-2-2-2-2-2---------|

e|-------------------------------------------------|
B|-------------------------------------------------|
G|--------6-6-6-6-6-6-6-6--9-9-9-9-9-9-9-9---------|
D|--------6-6-6-6-6-6-6-6--9-9-9-9-9-9-9-9---------|
A|--------4-4-4-4-4-4-4-4--7-7-7-7-7-7-7-7---------|
D|--------4-4-4-4-4-4-4-4--7-7-7-7-7-7-7-7---------|

POST-CHORUS:
e|-------------------------------------------------|
B|-------2-2-2-5--2-2-2--2-2-2-5--2-2-2------------|
G|-------------------------------------------------|
D|-------------------------------------------------|
A|-------------------------------------------------|
D|-------------------------------------------------|

INTERLUDE:
e|-------------------------------------------------|
B|-------------------------------------------------|
G|----------[Rest While Guitar 2 plays]------------|
D|-------------------------------------------------|
A|-------------------------------------------------|
D|-------------------------------------------------|

e|-------------------------------------------------|
B|-------------------------------------------------|
G|----------[Rest While Guitar 2 plays]------------|
D|-------------------------------------------------|
A|-------------------------------------------------|
D|-------------------------------------------------|

e|-------------------------------------------------|
B|-------------------------------------------------|
G|----------[Rest While Guitar 2 plays]------------|
D|-------------------------------------------------|
A|-------------------------------------------------|
D|-------------------------------------------------|

e|-------------------------------------------------|
B|-------------------------------------------------|
G|----------[Rest While Guitar 2 plays]------------|
D|-------------------------------------------------|
A|-------------------------------------------------|
D|-------------------------------------------------|

e|-------------------------------------------------|
B|-------------------------------------------------|
G|----------[Rest While Guitar 2 plays]------------|
D|-------------------------------------------------|
A|-------------------------------------------------|
D|-------------------------------------------------|

e|-------------------------------------------------|
B|-------------------------------------------------|
G|----------[Rest While Guitar 2 plays]------------|
D|-------------------------------------------------|
A|-------------------------------------------------|
D|-------------------------------------------------|

e|-------------------------------------------------|
B|-------------------------------------------------|
G|----------[Rest While Guitar 2 plays]------------|
D|-------------------------------------------------|
A|-------------------------------------------------|
D|-------------------------------------------------|

e|-------------------------------------------------|
B|-------------------------------------------------|
G|----------[Rest While Guitar 2 plays]------------|
D|-------------------------------------------------|
A|-------------------------------------------------|
D|-------------------------------------------------|

PRE-CHORUS:
e|-------------------------------------------------|
B|-------------------------------------------------|
G|-------------------------------------------------|
D|--2-2--2-2-2-2-2-2-2---2-2--2-2-2-2-2-2-2--------|
A|--2-2--2-2-2-2-2-2-2---2-2--2-2-2-2-2-2-2--------|
D|--2-2--2-2-2-2-2-2-2---2-2--2-2-2-2-2-2-2--------|

e|-------------------------------------------------|
B|-------------------------------------------------|
G|-------------------------------------------------|
D|--4-4--4-4-4-4-4-4-4---4-4--4-4-4-4-4-4-4--------|
A|--4-4--4-4-4-4-4-4-4---4-4--4-4-4-4-4-4-4--------|
D|--4-4--4-4-4-4-4-4-4---4-4--4-4-4-4-4-4-4--------|

e|-------------------------------------------------|
B|-------------------------------------------------|
G|-------------------------------------------------|
D|--7-7--7-7-7-7-7-7-7---7-7--7-7-7-7-7-7-7--------|
A|--7-7--7-7-7-7-7-7-7---7-7--7-7-7-7-7-7-7--------|
D|--7-7--7-7-7-7-7-7-7---7-7--7-7-7-7-7-7-7--------|

e|-------------------------------------------------|
B|-------------------------------------------------|
G|-------------------------------------------------|
D|--0-0--0-0-0-0-0-0-0---0-0--0-0-0-0-0-0-0--------|
A|--0-0--0-0-0-0-0-0-0---0-0--0-0-0-0-0-0-0--------|
D|--0-0--0-0-0-0-0-0-0---0-0--0-0-0-0-0-0-0--------|

e|-------------------------------------------------|
B|-------------------------------------------------|
G|----------[Rest While Guitar 2 plays]------------|
D|-------------------------------------------------|
A|-------------------------------------------------|
D|-------------------------------------------------|


CHORUS:

e|-------------------------------------------------|
B|-------------------------------------------------|
G|--------2-2-2-2-2-2-2-2--4-4-4-4-4-4-4-4---------|
D|--------2-2-2-2-2-2-2-2--4-4-4-4-4-4-4-4---------|
A|--------0-0-0-0-0-0-0-0--2-2-2-2-2-2-2-2---------|
D|--------0-0-0-0-0-0-0-0--2-2-2-2-2-2-2-2---------|

e|-------------------------------------------------|
B|-------------------------------------------------|
G|--------6-6-6-6-6-6-6-6--9-9-9-9-9-9-9-9---------|
D|--------6-6-6-6-6-6-6-6--9-9-9-9-9-9-9-9---------|
A|--------4-4-4-4-4-4-4-4--7-7-7-7-7-7-7-7---------|
D|--------4-4-4-4-4-4-4-4--7-7-7-7-7-7-7-7---------|

e|-------------------------------------------------|
B|-------------------------------------------------|
G|--------2-2-2-2-2-2-2-2--4-4-4-4-4-4-4-4---------|
D|--------2-2-2-2-2-2-2-2--4-4-4-4-4-4-4-4---------|
A|--------0-0-0-0-0-0-0-0--2-2-2-2-2-2-2-2---------|
D|--------0-0-0-0-0-0-0-0--2-2-2-2-2-2-2-2---------|

e|-------------------------------------------------|
B|-------------------------------------------------|
G|--------6-6-6-6-6-6-6-6--9-9-9-9-9-9-9-9---------|
D|--------6-6-6-6-6-6-6-6--9-9-9-9-9-9-9-9---------|
A|--------4-4-4-4-4-4-4-4--7-7-7-7-7-7-7-7---------|
D|--------4-4-4-4-4-4-4-4--7-7-7-7-7-7-7-7---------|

e|-------------------------------------------------|
B|-------------------------------------------------|
G|--------2-2-2-2-2-2-2-2--4-4-4-4-4-4-4-4---------|
D|--------2-2-2-2-2-2-2-2--4-4-4-4-4-4-4-4---------|
A|--------0-0-0-0-0-0-0-0--2-2-2-2-2-2-2-2---------|
D|--------0-0-0-0-0-0-0-0--2-2-2-2-2-2-2-2---------|

e|-------------------------------------------------|
B|-------------------------------------------------|
G|--------6-6-6-6-6-6-6-6--9-9-9-9-9-9-9-9---------|
D|--------6-6-6-6-6-6-6-6--9-9-9-9-9-9-9-9---------|
A|--------4-4-4-4-4-4-4-4--7-7-7-7-7-7-7-7---------|
D|--------4-4-4-4-4-4-4-4--7-7-7-7-7-7-7-7---------|

e|-------------------------------------------------|
B|-------------------------------------------------|
G|--------2-2-2-2-2-2-2-2--4-4-4-4-4-4-4-4---------|
D|--------2-2-2-2-2-2-2-2--4-4-4-4-4-4-4-4---------|
A|--------0-0-0-0-0-0-0-0--2-2-2-2-2-2-2-2---------|
D|--------0-0-0-0-0-0-0-0--2-2-2-2-2-2-2-2---------|

e|-------------------------------------------------|
B|-------------------------------------------------|
G|--------6-6-6-6-6-6-6-6--9-9-9-9-9-9-9-9---------|
D|--------6-6-6-6-6-6-6-6--9-9-9-9-9-9-9-9---------|
A|--------4-4-4-4-4-4-4-4--7-7-7-7-7-7-7-7---------|
D|--------4-4-4-4-4-4-4-4--7-7-7-7-7-7-7-7---------|

e|-------------------------------------------------|
B|-------------------------------------------------|
G|--------2----------------4-----------------------|
D|--------0----------------2-----------------------|
A|--------0----------------2-----------------------|
D|--------0----------------2-----------------------|

e|-------------------------------------------------|
B|-------------------------------------------------|
G|--------6----------------9-----------------------|
D|--------4----------------7-----------------------|
A|--------4----------------7-----------------------|
D|--------4----------------7-----------------------|

----------------------------------------------------------------------------

Guitar Two - Al Westaway

INTRO:
e|----9----9--7-5-5-----9----9--7-5-5--------------|
B|-10---10-----------10---10-----------------------|
G|-------------------------------------------------|  X2
D|-------------------------------------------------|
A|-------------------------------------------------|
D|-------------------------------------------------|

INTRO 2:
e|----9----9--7-5-5-----9----9--7-5-5--------------|
B|-10---10-----------10---10-----------------------|
G|-------------------------------------------------|
D|-------------------------------------------------|
A|-------------------------------------------------|
D|-------------------------------------------------|

e|----9----9--7-5-5-----9----9--7-5-5--------------|
B|-10---10-----------10---10-----------------------|
G|-------------------------------------------------|
D|-------------------------------------------------|
A|-------------------------------------------------|
D|-------------------------------------------------|

VERSE 1:
e|------12----------12----------12----------12-----|
B|---14----14----14----14----14----14----14----14--|
G|-14---------14----------14----------14-----------|  x2
D|-------------------------------------------------|
A|-------------------------------------------------|
D|-------------------------------------------------|

e|-------------------------------------------------|
B|-------------------------------------------------|
G|-------------------------------------------------|
D|-----------[REST-WHILE-GUITAR-1-PLAYS]-----------| x2
A|-------------------------------------------------|
D|-------------------------------------------------|

e|------12----------12----------12----------12-----|
B|---14----14----14----14----14----14----14----14--|
G|-14---------14----------14----------14-----------|  x2
D|-------------------------------------------------|
A|-------------------------------------------------|
D|-------------------------------------------------|

e|-------------------------------------------------|
B|-------------------------------------------------|
G|-------------------------------------------------|
D|-----------[REST-WHILE-GUITAR-1-PLAYS]-----------| x2
A|-------------------------------------------------|
D|-------------------------------------------------|

PRE-CHORUS:
e|------12----------12----------12----------12-----|
B|---14----14----14----14----14----14----14----14--|
G|-14---------14----------14----------14-----------|  x2
D|-------------------------------------------------|
A|-------------------------------------------------|
D|-------------------------------------------------|

e|------14----------14----------14----------14-----|
B|---14----14----14----14----14----14----14----14--|
G|-14---------14----------14----------14-----------|  x2
D|-------------------------------------------------|
A|-------------------------------------------------|
D|-------------------------------------------------|

e|------12----------12----------12----------12-----|
B|---14----14----14----14----14----14----14----14--|
G|-14---------14----------14----------14-----------|  x2
D|-------------------------------------------------|
A|-------------------------------------------------|
D|-------------------------------------------------|

e|------14----------14----------14----------14-----|
B|---14----14----14----14----14----14----14----14--|
G|-14---------14----------14----------14-----------|  x2
D|-------------------------------------------------|
A|-------------------------------------------------|
D|-------------------------------------------------|

e|----9----9--7-5-5-----9----9--7-5-5--------------|
B|-10---10-----------10---10-----------------------|
G|-------------------------------------------------|
D|-------------------------------------------------|
A|-------------------------------------------------|
D|-------------------------------------------------|

CHORUS:
e|-------------------------------------------------|
B|-------------------------------------------------|
G|-------7-7-7-7-7-7-7-7--9-9-9-9-9-9-9-9----------|
D|-------X-X-X-X-X-X-X-X--X-X-X-X-X-X-X-X----------|
A|-------5-5-5-5-5-5-5-5--7-7-7-7-7-7-7-7----------|
D|-------------------------------------------------|

e|-------------------------------------------------|
B|-------------------------------------------------|
G|-11-11-11-11-11-11-11-11--14-14-14-14-14-14-14-14|
D|-X--X--X--X--X--X--X--X---X--X--X--X--X--X--X--X-|
A|-9--9--9--9--9--9--9--9---12-12-12-12-12-12-12-12|
D|-------------------------------------------------|

e|-------------------------------------------------|
B|-------------------------------------------------|
G|-------7-7-7-7-7-7-7-7--9-9-9-9-9-9-9-9----------|
D|-------X-X-X-X-X-X-X-X--X-X-X-X-X-X-X-X----------|
A|-------5-5-5-5-5-5-5-5--7-7-7-7-7-7-7-7----------|
D|-------------------------------------------------|

e|-------------------------------------------------|
B|-------------------------------------------------|
G|-11-11-11-11-11-11-11-11--14-14-14-14-14-14-14-14|
D|-X--X--X--X--X--X--X--X---X--X--X--X--X--X--X--X-|
A|-9--9--9--9--9--9--9--9---12-12-12-12-12-12-12-12|
D|-------------------------------------------------|

e|-------------------------------------------------|
B|-------------------------------------------------|
G|-------7-7-7-7-7-7-7-7--9-9-9-9-9-9-9-9----------|
D|-------X-X-X-X-X-X-X-X--X-X-X-X-X-X-X-X----------|
A|-------5-5-5-5-5-5-5-5--7-7-7-7-7-7-7-7----------|
D|-------------------------------------------------|

e|-------------------------------------------------|
B|-------------------------------------------------|
G|-11-11-11-11-11-11-11-11--14-14-14-14-14-14-14-14|
D|-X--X--X--X--X--X--X--X---X--X--X--X--X--X--X--X-|
A|-9--9--9--9--9--9--9--9---12-12-12-12-12-12-12-12|
D|-------------------------------------------------|

e|-------------------------------------------------|
B|-------------------------------------------------|
G|-------7-7-7-7-7-7-7-7--9-9-9-9-9-9-9-9----------|
D|-------X-X-X-X-X-X-X-X--X-X-X-X-X-X-X-X----------|
A|-------5-5-5-5-5-5-5-5--7-7-7-7-7-7-7-7----------|
D|-------------------------------------------------|

e|-------------------------------------------------|
B|-------------------------------------------------|
G|-11-11-11-11-11-11-11-11--14---------------------|
D|-X--X--X--X--X--X--X--X---X---[LET-RING]---------|
A|-9--9--9--9--9--9--9--9---12---------------------|
D|-------------------------------------------------|

POST-CHORUS:
e|-------------------------------------------------|
B|-------------------------------------------------|
G|---------[REST WHILE GUITAR 1 PLAYS]-------------|
D|-------------------------------------------------|
A|-------------------------------------------------|
D|-------------------------------------------------|

VERSE 2:
e|------12----------12----------12----------12-----|
B|---14----14----14----14----14----14----14----14--|
G|-14---------14----------14----------14-----------|  x2
D|-------------------------------------------------|
A|-------------------------------------------------|
D|-------------------------------------------------|

e|-------------------------------------------------|
B|-------------------------------------------------|
G|-------------------------------------------------|
D|-----------[REST-WHILE-GUITAR-1-PLAYS]-----------| x2
A|-------------------------------------------------|
D|-------------------------------------------------|

e|------12----------12----------12----------12-----|
B|---14----14----14----14----14----14----14----14--|
G|-14---------14----------14----------14-----------|  x2
D|-------------------------------------------------|
A|-------------------------------------------------|
D|-------------------------------------------------|

e|-------------------------------------------------|
B|-------------------------------------------------|
G|-------------------------------------------------|
D|-----------[REST-WHILE-GUITAR-1-PLAYS]-----------| x2
A|-------------------------------------------------|
D|-------------------------------------------------|

PRE-CHORUS:
e|------12----------12----------12----------12-----|
B|---14----14----14----14----14----14----14----14--|
G|-14---------14----------14----------14-----------|  x2
D|-------------------------------------------------|
A|-------------------------------------------------|
D|-------------------------------------------------|

e|------14----------14----------14----------14-----|
B|---14----14----14----14----14----14----14----14--|
G|-14---------14----------14----------14-----------|  x2
D|-------------------------------------------------|
A|-------------------------------------------------|
D|-------------------------------------------------|

e|------12----------12----------12----------12-----|
B|---14----14----14----14----14----14----14----14--|
G|-14---------14----------14----------14-----------|  x2
D|-------------------------------------------------|
A|-------------------------------------------------|
D|-------------------------------------------------|

e|------14----------14----------14----------14-----|
B|---14----14----14----14----14----14----14----14--|
G|-14---------14----------14----------14-----------|  x2
D|-------------------------------------------------|
A|-------------------------------------------------|
D|-------------------------------------------------|

e|----9----9--7-5-5-----9----9--7-5-5--------------|
B|-10---10-----------10---10-----------------------|
G|-------------------------------------------------|
D|-------------------------------------------------|
A|-------------------------------------------------|
D|-------------------------------------------------|

CHORUS:
e|-------------------------------------------------|
B|-------------------------------------------------|
G|-------7-7-7-7-7-7-7-7--9-9-9-9-9-9-9-9----------|
D|-------X-X-X-X-X-X-X-X--X-X-X-X-X-X-X-X----------|
A|-------5-5-5-5-5-5-5-5--7-7-7-7-7-7-7-7----------|
D|-------------------------------------------------|

e|-------------------------------------------------|
B|-------------------------------------------------|
G|-11-11-11-11-11-11-11-11--14-14-14-14-14-14-14-14|
D|-X--X--X--X--X--X--X--X---X--X--X--X--X--X--X--X-|
A|-9--9--9--9--9--9--9--9---12-12-12-12-12-12-12-12|
D|-------------------------------------------------|

e|-------------------------------------------------|
B|-------------------------------------------------|
G|-------7-7-7-7-7-7-7-7--9-9-9-9-9-9-9-9----------|
D|-------X-X-X-X-X-X-X-X--X-X-X-X-X-X-X-X----------|
A|-------5-5-5-5-5-5-5-5--7-7-7-7-7-7-7-7----------|
D|-------------------------------------------------|

e|-------------------------------------------------|
B|-------------------------------------------------|
G|-11-11-11-11-11-11-11-11--14-14-14-14-14-14-14-14|
D|-X--X--X--X--X--X--X--X---X--X--X--X--X--X--X--X-|
A|-9--9--9--9--9--9--9--9---12-12-12-12-12-12-12-12|
D|-------------------------------------------------|

e|-------------------------------------------------|
B|-------------------------------------------------|
G|-------7-7-7-7-7-7-7-7--9-9-9-9-9-9-9-9----------|
D|-------X-X-X-X-X-X-X-X--X-X-X-X-X-X-X-X----------|
A|-------5-5-5-5-5-5-5-5--7-7-7-7-7-7-7-7----------|
D|-------------------------------------------------|

e|-------------------------------------------------|
B|-------------------------------------------------|
G|-11-11-11-11-11-11-11-11--14-14-14-14-14-14-14-14|
D|-X--X--X--X--X--X--X--X---X--X--X--X--X--X--X--X-|
A|-9--9--9--9--9--9--9--9---12-12-12-12-12-12-12-12|
D|-------------------------------------------------|

e|-------------------------------------------------|
B|-------------------------------------------------|
G|-------7-7-7-7-7-7-7-7--9-9-9-9-9-9-9-9----------|
D|-------X-X-X-X-X-X-X-X--X-X-X-X-X-X-X-X----------|
A|-------5-5-5-5-5-5-5-5--7-7-7-7-7-7-7-7----------|
D|-------------------------------------------------|

e|-------------------------------------------------|
B|-------------------------------------------------|
G|-11-11-11-11-11-11-11-11--14-14-14-14-14-14-14-14|
D|-X--X--X--X--X--X--X--X---X--X--X--X--X--X--X--X-|
A|-9--9--9--9--9--9--9--9---12-12-12-12-12-12-12-12|
D|-------------------------------------------------|

POST-CHORUS:
e|-------------------------------------------------|
B|-------------------------------------------------|
G|---------[REST-WHILE-GUITAR-1-PLAYS]-------------|
D|-------------------------------------------------|
A|-------------------------------------------------|
D|-------------------------------------------------|

INTERLUDE:
e|-------------------------------------------------|
B|-------------------------------------------------|
G|----------[Rest While Guitar 1 plays]------------|
D|-------------------------------------------------|
A|-------------------------------------------------|
D|-------------------------------------------------|

e|-------------------------------------------------|
B|-------------------------------------------------|
G|-------------------[Rest]------------------------|
D|-------------------------------------------------|
A|-------------------------------------------------|
D|-------------------------------------------------|

e|-------------------------------------------------|
B|-------------------------------------------------|
G|-------------------------------------------------|
D|---X-X-------------------X-X---------------------|
A|---X-X-------------------X-X---------------------|
D|---X-X-------------------X-X---------------------|

e|-------------------------------------------------|
B|-------------------------------------------------|
G|-------------------------------------------------|
D|---X-X-------------------X-X---------------------|
A|---X-X-------------------X-X---------------------|
D|---X-X-------------------X-X---------------------|

e|-------------------------------------------------|
B|-------------------------------------------------|
G|-------------------[Rest]------------------------|
D|-------------------------------------------------|
A|-------------------------------------------------|
D|-------------------------------------------------|

e|-------------------------------------------------|
B|-------------------------------------------------|
G|-------------------[Rest]------------------------|
D|-------------------------------------------------|
A|-------------------------------------------------|
D|-------------------------------------------------|

e|-------------------------------------------------|
B|-------------------------------------------------|
G|-------------------------------------------------|
D|---X-X-------------------X-X---------------------|
A|---X-X-------------------X-X---------------------|
D|---X-X-------------------X-X---------------------|

e|-------------------------------------------------|
B|-------------------------------------------------|
G|-------------------------------------------------|
D|---X-X-------------------X-X---------------------|
A|---X-X-------------------X-X---------------------|
D|---X-X-------------------X-X---------------------|

PRE-CHORUS
e|------12----------12----------12----------12-----|
B|---14----14----14----14----14----14----14----14--|
G|-14---------14----------14----------14-----------|  x2
D|-------------------------------------------------|
A|-------------------------------------------------|
D|-------------------------------------------------|

e|------14----------14----------14----------14-----|
B|---14----14----14----14----14----14----14----14--|
G|-14---------14----------14----------14-----------|  x2
D|-------------------------------------------------|
A|-------------------------------------------------|
D|-------------------------------------------------|

e|------12----------12----------12----------12-----|
B|---14----14----14----14----14----14----14----14--|
G|-14---------14----------14----------14-----------|  x2
D|-------------------------------------------------|
A|-------------------------------------------------|
D|-------------------------------------------------|

e|------14----------14----------14----------14-----|
B|---14----14----14----14----14----14----14----14--|
G|-14---------14----------14----------14-----------|  x2
D|-------------------------------------------------|
A|-------------------------------------------------|
D|-------------------------------------------------|

e|----9----9--7-5-5-----9----9--7-5-5--------------|
B|-10---10-----------10---10-----------------------|
G|-------------------------------------------------|
D|-------------------------------------------------|
A|-------------------------------------------------|
D|-------------------------------------------------|


CHORUS:

e|-------------------------------------------------|
B|-------------------------------------------------|
G|-------7-7-7-7-7-7-7-7--9-9-9-9-9-9-9-9----------|
D|-------X-X-X-X-X-X-X-X--X-X-X-X-X-X-X-X----------|
A|-------5-5-5-5-5-5-5-5--7-7-7-7-7-7-7-7----------|
D|-------------------------------------------------|

e|-------------------------------------------------|
B|-------------------------------------------------|
G|-11-11-11-11-11-11-11-11--14-14-14-14-14-14-14-14|
D|-X--X--X--X--X--X--X--X---X--X--X--X--X--X--X--X-|
A|-9--9--9--9--9--9--9--9---12-12-12-12-12-12-12-12|
D|-------------------------------------------------|

e|-------------------------------------------------|
B|-------------------------------------------------|
G|-------7-7-7-7-7-7-7-7--9-9-9-9-9-9-9-9----------|
D|-------X-X-X-X-X-X-X-X--X-X-X-X-X-X-X-X----------|
A|-------5-5-5-5-5-5-5-5--7-7-7-7-7-7-7-7----------|
D|-------------------------------------------------|

e|-------------------------------------------------|
B|-------------------------------------------------|
G|-11-11-11-11-11-11-11-11--14-14-14-14-14-14-14-14|
D|-X--X--X--X--X--X--X--X---X--X--X--X--X--X--X--X-|
A|-9--9--9--9--9--9--9--9---12-12-12-12-12-12-12-12|
D|-------------------------------------------------|


e|-------------------------------------------------|
B|-------------------------------------------------|
G|-------7-7-7-7-7-7-7-7--9-9-9-9-9-9-9-9----------|
D|-------X-X-X-X-X-X-X-X--X-X-X-X-X-X-X-X----------|
A|-------5-5-5-5-5-5-5-5--7-7-7-7-7-7-7-7----------|
D|-------------------------------------------------|

e|-------------------------------------------------|
B|-------------------------------------------------|
G|-11-11-11-11-11-11-11-11--14-14-14-14-14-14-14-14|
D|-X--X--X--X--X--X--X--X---X--X--X--X--X--X--X--X-|
A|-9--9--9--9--9--9--9--9---12-12-12-12-12-12-12-12|
D|-------------------------------------------------|

e|-------------------------------------------------|
B|-------------------------------------------------|
G|-------7-7-7-7-7-7-7-7--9-9-9-9-9-9-9-9----------|
D|-------X-X-X-X-X-X-X-X--X-X-X-X-X-X-X-X----------|
A|-------5-5-5-5-5-5-5-5--7-7-7-7-7-7-7-7----------|
D|-------------------------------------------------|

e|-------------------------------------------------|
B|-------------------------------------------------|
G|-11-11-11-11-11-11-11-11--14-14-14-14-14-14-14-14|
D|-X--X--X--X--X--X--X--X---X--X--X--X--X--X--X--X-|
A|-9--9--9--9--9--9--9--9---12-12-12-12-12-12-12-12|
D|-------------------------------------------------|


e|-------------------------------------------------|
B|-------------------------------------------------|
G|--------2----------------4-----------------------|
D|--------0----------------2-----------------------|
A|--------0----------------2-----------------------|
D|--------0----------------2-----------------------|

e|-------------------------------------------------|
B|-------------------------------------------------|
G|--------6----------------9-----------------------|
D|--------4----------------7-----------------------|
A|--------4----------------7-----------------------|
D|--------4----------------7-----------------------|

lEGEND:
| x  Mute note

============================================================================

Thats my tab. And I really hope you enjoyed it...

Benji
Tap to rate this tab
# A B C D E F G H I J K L M N O P Q R S T U V W X Y Z