Song name
# A B C D E F G H I J K L M N O P Q R S T U V W X Y Z

Fightstar - Unfamiliar Ceilings tab

Help us improve GuitareTab! Take a short survey!
This is my first tab on this site and I think this tab sounds pretty accurate, if bits 
wrong you can work around my ideas to correct them.

Intro: 0:01-0:42

D#|-3--2----0-------|
A#|------------3----|
F#|------4--------0-| x6
C#|------------0----|
G#|---------3-------|
C#|-2----2--------2-|

0:42-0:50

D#|-------------------------|
A#|-------------------------|
F#|-------0-----0-----0-----| x2
C#|---4-----4-----4-----4---|
G#|-5---5-----5-----5-----5-|
C#|-------------------------|

0:50-1:18

D#|-3--2----0-------|
A#|------------3----|
F#|------4--------0-| x4
C#|------------0----|
G#|---------3-------|
C#|-2----2--------2-|

1:18-1:25

D#|-------------------------|
A#|-------------------------|
F#|-------0-----0-----0-----| x2
C#|---4-----4-----4-----4---|
G#|-5---5-----5-----5-----5-|
C#|-------------------------|


Chorus: 1:25-1:39

D#|-------------|
A#|-------------|
F#|-0--0--0--0--| x2
C#|-5--7--9--12-|
G#|-3--5--7--10-|
C#|-------------|

Comes back in at 1:46 after silence

1:46-2:13

D#|-3--2----0-------|
A#|------------3----|
F#|------4--------0-| x4
C#|------------0----|
G#|---------3-------|
C#|-2----2--------2-|

2:13-2:21

D#|-------------------------|
A#|-------------------------|
F#|-------0-----0-----0-----| x2
C#|---4-----4-----4-----4---|
G#|-5---5-----5-----5-----5-|
C#|-------------------------|

Chorus: 2:21-2:48

D#|-------------|
A#|-------------|
F#|-0--0--0--0--| x4
C#|-5--7--9--12-|
G#|-3--5--7--10-|
C#|-------------|


2:48-2:56 (Not too sure about this bit)

D#|-------3-----3-----3-----|
A#|-------------------------|
F#|-------------------------| x2
C#|---3-----3-----3-----3---|
G#|-------------------------|
C#|-3---3-----3-----3-----3-|

2:56-3:10

D#|-3--2----0-------|
A#|------------3----|
F#|------4--------0-| x2
C#|------------0----|
G#|---------3-------|
C#|-2----2--------2-|

3:10-3:18

D#|-------------------------|
A#|-------------------------|
F#|-------0-----0-----0-----| x2
C#|---4-----4-----4-----4---|
G#|-5---5-----5-----5-----5-|
C#|-------------------------|

Chorus: 3:18-3:45

D#|-------------|
A#|-------------|
F#|-0--0--0--0--| x4
C#|-5--7--9--12-|
G#|-3--5--7--10-|
C#|-------------|

3:45-4:00

D#|-------3-----3-----3-----|
A#|-------------------------|
F#|-------------------------| x4
C#|---3-----3-----3-----3---|
G#|-------------------------|
C#|-3---3-----3-----3-----3-|
Related for Unfamiliar Ceilings tab