Song name
# A B C D E F G H I J K L M N O P Q R S T U V W X Y Z

Fightstar - Tannhauser Gate tab

tuning-drop Bb (or A#)
C----
G----
Eb---
Bb---
F----
Bb---

pm-palm mute
/-slide up
b-bend
~-vibro
x-mute string

intro (guitar 1)
|------------------------------------------------------------|
|------------------------------------------------------------|
|------------------------------------------------------------|
|------------------------------------------------------------|
|-0---0---0000---0000---000-----0---0---0000---0000---000----|
|-0---0---0000---0000---000-1~--0---0---0000---0000---000-1~-|
pm-   -   ----   ----   ---     -   -   ----   ----   ---

|------------------------------------------------------------|
|------------------------------------------------------------|
|------------------------------------------------------------|
|------------------------------------------------------------|
|-0---0---0000---0000---000-----0---0---0000---0000---000----|
|-0---0---0000-0-0000-0-000-1~--0---0---0000---0000---000-1~-|
pm-   -   ---- - ---- - ---     -   -   ----   ----   ---

(guitar 2)
|------------------------------------------------------------|
|------------------------------------------------------------|
|------------------------------------------------------------|
|------------------------------------------------------------|
|-5---5---5555---5555---555-----5---5---5555---5555---555----|
|---------------------------1~----------------------------1~-|
pm-   -   ----   ----   ---     -   -   ----   ----   ---

|------------------------------------------------------------|
|------------------------------------------------------------|
|------------------------------------------------------------|
|------------------------------------------------------------|
|-5---5---5555-5-5555-5-555-----5---5---5555---5555---555----|
|---------------------------1~----------------------------1~-|
pm-   -   ---- - ---- - ---     -   -   ----   ----   ---

|-------------------------------|
|-------------------------------|
|-------------------------------|
|-------3~----------1~----------|
|-3-2-0-----0-3-2-0-----0-2-1-0-|
|-3-2-0-----0-3-2-0-----0-2-1-0-|
pm- - -     - - - -     - - -

(guitar 1)
|-----------------------------------------------------------------|
|-----------------------------------------------------------------|
|-----------------------------------------------------------------|
|-4-4---4-0-0---0-4-4---4-0-0---0-4-4---4-0-0---0-4-4---4-0-0---0-|
|-4-4---4-0-0---0-4-4---4-0-0---0-4-4---4-0-0---0-4-4---4-0-0---0-|
|-4-4---4-0-0---0-4-4---4-0-0---0-4-4---4-0-0---0-4-4---4-0-0---0-|

(guitar 2)
|-----------------------------------------------------------------|
|-----(elevens, not ones)-----------------------------------------|
|1111--111111--111111--111111--111111--111111--111111--111111--11-|
|-x-x---x-x-x---x-x-x---x-x-x---x-x-x---x-x-x---x-x-x---x-x-x---x-|
|-9-9---9-9-9---9-9-9---9-9-9---9-9-9---9-9-9---9-9-9---9-9-9---9-|
|-----------------------------------------------------------------|

|---------------------------------|
|---------------------------------|
|---------------------------------|
|---------------------------------|
|---------------------------------|
|-8-8-8-0-0-0-8-8-8-0-0-0-8-8-0-0-|

verse 1
  you.......................are the mould
|----------------------------------------------------------------------------|
|-12-12-12---12-12---12-12---12-12---12-12--12-12-12---12-12---12-12---12-12-|
|-14-14-14---14-14---14-14---14-14---14-14--14-14-14---14-14---14-14---14-14-|
|-11-11-11---11-11---11-11---11-11---11-11--12-12-12---12-12---12-12---12-12-|
|----------------------------------------------------------------------------|
|----------------------------------------------------------------------------|

|--------0--0--0----0--0----0--0----0--0----0--0---0--0--0----0--0----0--0--|
|-12-12--12-12-12---12-12---12-12---12-12---12-12--12-12-12---12-12---12-12-|
|-14-14--14-14-14---14-14---14-14---14-14---14-14--13-13-13---13-13---13-13-|
|-12-12---------------------------------------------------------------------|
|---------------------------------------------------------------------------|
|---------------------------------------------------------------------------|

|-0--0----0--0--|
|-12-12---12-12-| repeat all of verse once more
|-13-13---13-13-|
|---------------|
|---------------|
|---------------|

chorus 1
(guitar 1)
              amazing graze.........
|-----------------------------------------------------------------|
|-----------------------------------------------------------------|
|-----------------------------------------------------------------|
|-4-4---4-0-0---0-4-4---4-0-0---0-4-4---4-0-0---0-4-4---4-0-0---0-|
|-4-4---4-0-0---0-4-4---4-0-0---0-4-4---4-0-0---0-4-4---4-0-0---0-|
|-4-4---4-0-0---0-4-4---4-0-0---0-4-4---4-0-0---0-4-4---4-0-0---0-|

(guitar 2)
|-----------------------------------------------------------------|
|-----------------------------------------------------------------|
|1111--111111--111111--111111--111111--111111--111111--111111--11-|
|-x-x---x-x-x---x-x-x---x-x-x---x-x-x---x-x-x---x-x-x---x-x-x---x-|
|-9-9---9-9-9---9-9-9---9-9-9---9-9-9---9-9-9---9-9-9---9-9-9---9-|
|-----------------------------------------------------------------|

(guitar 1)
|---------------------------------------------------------|
|---------------------------------------------------------|
|---------------------------------------------------------|
|-4-4---4-0-0---0-4-4---4-0-0---0-------3~----------1~----|
|-4-4---4-0-0---0-4-4---4-0-0---0-3-2-0-----0-3-2-0-----0-|
|-4-4---4-0-0---0-4-4---4-0-0---0-3-2-0-----0-3-2-0-----0-|
                                pm- - -     - - - -     -

(guitar 2)
|---------------------------------|
|---------------------------------|
|1111--111111--111111--111111--11-|
|-x-x---x-x-x---x-x-x---x-x-x---x-|
|-9-9---9-9-9---9-9-9---9-9-9---9-|
|---------------------------------|

(guitar 1)
|-----------------------------------------------------------------|
|-----------------------------------------------------------------|
|-----------------------------------------------------------------|
|-4-4---4-0-0---0-4-4---4-0-0---0-4-4---4-0-0---0-4-4---4-0-0---0-|
|-4-4---4-0-0---0-4-4---4-0-0---0-4-4---4-0-0---0-4-4---4-0-0---0-|
|-4-4---4-0-0---0-4-4---4-0-0---0-4-4---4-0-0---0-4-4---4-0-0---0-|

(guitar 2)
|-----------------------------------------------------------------|
|-----------------------------------------------------------------|
|1111--111111--111111--111111--111111--111111--111111--111111--11-|
|-x-x---x-x-x---x-x-x---x-x-x---x-x-x---x-x-x---x-x-x---x-x-x---x-|
|-9-9---9-9-9---9-9-9---9-9-9---9-9-9---9-9-9---9-9-9---9-9-9---9-|
|-----------------------------------------------------------------|

(guitar 1)
|------------------------------------------------|
|------------------------------------------------|
|------------------------------------------------|
|-4-4---4-0-0---0-4-4---4-0-0---0----------------|
|-4-4---4-0-0---0-4-4---4-0-0---0----------------|
|-4-4---4-0-0---0-4-4---4-0-0---0-8-8-8-0-0-0-8--|b


(guitar 2)
|---------------------------------|
|---------------------------------|
|1111--111111--111111--111111--11-|
|-x-x---x-x-x---x-x-x---x-x-x---x-|
|-9-9---9-9-9---9-9-9---9-9-9---9-|
|---------------------------------|

verse 2
  would.....................you believe
|----------------------------------------------------------------------------|
|-12-12-12---12-12---12-12---12-12---12-12--12-12-12---12-12---12-12---12-12-|
|-14-14-14---14-14---14-14---14-14---14-14--14-14-14---14-14---14-14---14-14-|
|-11-11-11---11-11---11-11---11-11---11-11--12-12-12---12-12---12-12---12-12-|
|----------------------------------------------------------------------------|
|----------------------------------------------------------------------------|

|--------0--0--0----0--0----0--0----0--0----0--0---0--0--0----0--0----0--0--|
|-12-12--12-12-12---12-12---12-12---12-12---12-12--12-12-12---12-12---12-12-|
|-14-14--14-14-14---14-14---14-14---14-14---14-14--13-13-13---13-13---13-13-|
|-12-12---------------------------------------------------------------------|
|---------------------------------------------------------------------------|
|---------------------------------------------------------------------------|

|-0--0----0--0--|
|-12-12---12-12-| repeat all of verse once more
|-13-13---13-13-|
|---------------|
|---------------|
|---------------|

chorus 2
(guitar 1)
             amazing grace......................
|-----------------------------------------------------------------|
|-----------------------------------------------------------------|
|-----------------------------------------------------------------|
|-4-4---4-0-0---0-4-4---4-0-0---0-4-4---4-0-0---0-4-4---4-0-0---0-|
|-4-4---4-0-0---0-4-4---4-0-0---0-4-4---4-0-0---0-4-4---4-0-0---0-|
|-4-4---4-0-0---0-4-4---4-0-0---0-4-4---4-0-0---0-4-4---4-0-0---0-|

(guitar 2)
|-----------------------------------------------------------------|
|-----------------------------------------------------------------|
|1111--111111--111111--111111--111111--111111--111111--111111--11-|
|-x-x---x-x-x---x-x-x---x-x-x---x-x-x---x-x-x---x-x-x---x-x-x---x-|
|-9-9---9-9-9---9-9-9---9-9-9---9-9-9---9-9-9---9-9-9---9-9-9---9-|
|-----------------------------------------------------------------|

(guitar 1)
|---------------------------------------------------------|
|---------------------------------------------------------|
|---------------------------------------------------------|
|-4-4---4-0-0---0-4-4---4-0-0---0-------3~----------1~----|
|-4-4---4-0-0---0-4-4---4-0-0---0-3-2-0-----0-3-2-0-----0-|
|-4-4---4-0-0---0-4-4---4-0-0---0-3-2-0-----0-3-2-0-----0-|
                                pm- - -     - - - -     -

(guitar 2)
|---------------------------------|
|---------------------------------|
|1111--111111--111111--111111--11-|
|-x-x---x-x-x---x-x-x---x-x-x---x-|
|-9-9---9-9-9---9-9-9---9-9-9---9-|
|---------------------------------|

(guitar 1)
|-----------------------------------------------------------------|
|-----------------------------------------------------------------|
|-----------------------------------------------------------------|
|-4-4---4-0-0---0-4-4---4-0-0---0-4-4---4-0-0---0-4-4---4-0-0---0-|
|-4-4---4-0-0---0-4-4---4-0-0---0-4-4---4-0-0---0-4-4---4-0-0---0-|
|-4-4---4-0-0---0-4-4---4-0-0---0-4-4---4-0-0---0-4-4---4-0-0---0-|

(guitar 2)
|-----------------------------------------------------------------|
|-----------------------------------------------------------------|
|1111--111111--111111--111111--111111--111111--111111--111111--11-|
|-x-x---x-x-x---x-x-x---x-x-x---x-x-x---x-x-x---x-x-x---x-x-x---x-|
|-9-9---9-9-9---9-9-9---9-9-9---9-9-9---9-9-9---9-9-9---9-9-9---9-|
|-----------------------------------------------------------------|

(guitar 1)
|-----------------------------------------------------------------|
|-----------------------------------------------------------------|
|-----------------------------------------------------------------|
|-4-4---4-0-0---0-4-4---4-0-0---0---------------------------------|
|-4-4---4-0-0---0-4-4---4-0-0---0---------------------------------|
|-4-4---4-0-0---0-4-4---4-0-0---0-8-8-8-0-0-0-8-8-8-0-0-0-8-8-0-0-|

(guitar 1 only)
|------------------------------------------------------------|
|------------------------------------------------------------|
|------------------------------------------------------------|
|------------------------------------------------------------|
|------------------------------------------------------------|
|-0---0---0000---0000---000-1~--0---0---0000---0000---000-1~-|
pm-   -   ----   ----   ---     -   -   ----   ----   ---

|------------------------------------------------------------|
|------------------------------------------------------------|
|------------------------------------------------------------|
|------------------------------------------------------------|
|------------------------------------------------------------|
|-0---0---0000-0-0000-0-000-1~--0---0---0000---0000---000-1~-|
pm-   -   ---- - ---- - ---     -   -   ----   ----   ---

repeat intro riff

bridge
|-----------------------------------------------------------------|
|-----------------------------------------------------------------|
|-----------------------------------------------------------------|
|---------3-2-----3-----------------------3-2-----3---------------|
|-------------4-5-----------------------------4-5-----------------|
|-0-1-0-------------3/5-5-5/8-8-8-0-1-0-------------3/5-5-5/8-8-8-|

|-----------------------------------------------------------------|
|-----------------------------------------------------------------|
|-----------------------------------------------------------------|
|---------3-2-----3-----------------------3-2-----3---------------|
|-------------4-5-----------------------------4-5-----------------|
|-0-1-0-------------3/5-5-5/8-8-8-0-1-0-------------3/5-5-5/8-8-8-|

repeat bridge once more

(guitar 1)            my  savior...................
|-----------------------------------------------------------------|
|-----------------------------------------------------------------|
|-----------------------------------------------------------------|
|-----------------------------------------------------------------|
|-----------------------------------------------------------------|
|-4-4---4-0-0---0-4-4---4-0-0---0-4-4---4-0-0---0-4-4---4-0-0---0-|

(guitar 2)
|-----------------------------------------------------------------|
|-----------------------------------------------------------------|
|1111--111111--111111--111111--111111--111111--111111--111111--11-|
|-x-x---x-x-x---x-x-x---x-x-x---x-x-x---x-x-x---x-x-x---x-x-x---x-|
|-9-9---9-9-9---9-9-9---9-9-9---9-9-9---9-9-9---9-9-9---9-9-9---9-|
|-----------------------------------------------------------------|

outro
GO!!!
|---------------------------------------------------------------|
|---------------------------------------------------------------|
|---------------------------------------------------------------|
|---------------------------------------------------------------|
|---------------------------------------------------------------|
|-2-1-0-3-2-0-2-1-0-3-2-0-2-1-0---2-1-0-3-2-0-2-1-0-3-2-0-2-1-0-|

SAVIOR!!!
|---------------------------------------------------------------|
|---------------------------------------------------------------|
|---------------------------------------------------------------|
|---------------------------------------------------------------|
|-2-1-0-3-2-0-2-1-0-3-2-0-2-1-0---2-1-0-3-2-0-2-1-0-3-2-0-2-1-0-|
|-2-1-0-3-2-0-2-1-0-3-2-0-2-1-0---2-1-0-3-2-0-2-1-0-3-2-0-2-1-0-|
pm- - - - - - - - - - - - - -     - - - - - - - - - - - - - -

SAVE YOURSELF SAVE YOURSELF SAVE YOURSELF!!!
|-----------------------------------|
|-----------------------------------|
|-----------------------------------|
|---------------------------------0-|
|-2---1---0---3---2---0---2---1---0-|
|-2---1---0---3---2---0---2---1---0-|
pm-   -   -   -   -   -   -   -

end.
Tap to rate this tab
# A B C D E F G H I J K L M N O P Q R S T U V W X Y Z