Song name
# A B C D E F G H I J K L M N O P Q R S T U V W X Y Z

Filicide - Dead tab

Artist:FILICIDE
Song:Dead

VERSE:

E]-----13----13-------12----12-------11----11------11------11------
B]---16----16--16\--15----15--15\--14----14--14--14--14--14--14\---
G]-14----14-------13----13-------12----12--------------12----------
D]---------------------------------------------12------------------
A]-----------------------------------------------------------------
E]-----------------------------------------------------------------
  repeat 4x

CHORUS:

E]-----------------------------------------------------------------
B]-----------------------------------------------------------------
G]-----------------------------------------------------------------
D]--8--4--6-xxxx-8--4--6-xxxx-8--4--6-xxxx-8-4-6\13-11-12----------
A]--8--4--6-xxxx-8--4--6-xxxx-8--4--6-xxxx-8-4-6\13-11-12----------
E]--8--4--6-xxxx-8--4--6-xxxx-8--4--6-xxxx-8-4-6\13-11-12----------
  repeat 2x[_pm_]       [_pm_]       [_pm_]
  
BRIDGE/OUTRO:

E]-----------------------------------------------------------------
B]-----------------------------------------------------------------
G]-----------------------------------------------------------------
D]--8--4--6\13-11-12--8--4--6\13-11-12--8--4--6\13-11-12--8--4--6--
A]--8--4--6\13-11-12--8--4--6\13-11-12--8--4--6\13-11-12--8--4--6--
E]--8--4--6\13-11-12--8--4--6\13-11-12--8--4--6\13-11-12--8--4--6--

====
Tap to rate this tab
 
# A B C D E F G H I J K L M N O P Q R S T U V W X Y Z