Song name
# A B C D E F G H I J K L M N O P Q R S T U V W X Y Z

Film - Srce Na Cesti tab

                         Film - Srce na cesti
                          by:JohnnySavich'97

Uvod(bass pretvoren u gitaru)
          Am               C               F             C       G/H
E|---------------------------------------------------------------------|
B|---------------------------------------------------------------------|
G|---------------------------------------------------------------------|  2X
D|-2-2-2-2-2-2-2-2--5-5-5-5-5-5-5-5-------------------5-5-5-5-5-5-5-5--|
A|-0-0-0-0-0-0-0-0--3-3-3-3-3-3-3-3--3-3-3-3-3-3-3-3--3-3-3-3-2-2-2-2--|
E|-----------------------------------1-1-1-1-1-1-1-1-------------------|

Tema:

E|------------------------------------------------------------|
B|------------------------------------------------------------|
G|--------------5---------------------------------------------|
D|------7---------7-5-----------------------------------------|
A|--5\7---------------7------7--5\3--3-3--------3-------------|
E|-----------------------------------------5--3---------------|


E|------------------------------------------------------------|
B|------------------------------------------------------------|
G|--------------5---------------------------------------------|
D|------7---------7-5-----------------------------2-----------|
A|--5\7---------------7------7--5\3--3-3----------------------|
E|-----------------------------------------5--3---------------|


E|------------------------------------------------------------|
B|------------------------------------------------------------|
G|--------------5---------------------------------------------|
D|------7---------7-5-----------------------------------------|
A|--5\7---------------7------7--5\3--3-3--------3-------------|
E|-----------------------------------------5--3---------------|


E|------------------------------------------------------------|
B|------------------------------------------------------------|
G|--------------5---------------------------------------------|
D|------7---------7-5-----------------------------------------|
A|--5\7---------------7------7--5\3--3-3----------------------|
E|-----------------------------------------5--3---5-----------|

Strofa:

Am(8X)        C(8X)        F(8X)        Am(8X)     Prvi put      |
                                                                    2X
Am(8X)        C(8X)        F(8X)       C(4X)  G\H(4X)  Drugi put |


Tema

Strofa


Refren:
(trajanje)

    Am~~      C~~      F~~        C~G\H~  Prvi put      |
                                                            2X
    Am~~      C~~      F~~        Am~~    Drugi put     |  

Solo:

E|-----555555--8-5------------------------------------------|
B|---5-------------888858-------------5---888858~-----------|
G|-------------------------5-7--5-7-------------------------| 3x
D|----------------------------------------------------------|
A|----------------------------------------------------------|
E|----------------------------------------------------------|

E|-----555555--8-5------------------------------------------|
B|---5-------------888858-------------5---------------------|
G|-------------------------5-7--5-7-------------------------| 
D|---------------------------------------777757-------------|
A|----------------------------------------------------------|
E|----------------------------------------------------------|


Strofa

Ref. 2X

Solo

KRAJ!!!
Tap to rate this tab
# A B C D E F G H I J K L M N O P Q R S T U V W X Y Z