Song name
# A B C D E F G H I J K L M N O P Q R S T U V W X Y Z

Filmmaker - Goodnight Suicide tab

Goodnight Suicide

Filmmaker

Guitar # 1 (or 2 it doesnt really matter) (Standard)
Intro/Verse 1
e|----------------------------------|
b|--------7-------------7-----------|
g|-----9----9---9----9----9---9-----|
D|--7---------7----7--------7-------|
A|----------------------------------|
E|----------------------------------|


e|---------9----------------9-----------|
b|-----10----10---10----10----10---10---|
g|--7-----------7-----7----------7------|
D|--------------------------------------|
A|--------------------------------------|
E|--------------------------------------|





Guitar # 2 (or 1 if you want) (Standard)
Intro  (comes in around 00:57-00:58)
e|------------------------------|-----------------------------------------|
b|-----7----7----7----7----7----|-----10----10----10----10----10----10----|
g|-----9----9----9----9----9----|------9-----9-----9-----9-----9-----9----|
D|-------7----7----7----7----7--|--------7-----7-----7-----7-----7-----7--|
A|------------------------------|-----------------------------------------|
E|------------------------------|-----------------------------------------|


e|------------------------------|------------------------------|
b|-----7----7----7----7----7----|-----7----7----7----7----7----|
g|-----9----9----9----9----9----|-----7----7----7----7----7----|
D|-------7----7----7----7----7--|-------7----7----7----7----7--|
A|------------------------------|------------------------------|
E|------------------------------|------------------------------|
(listen for timing)




That about it, nothin fancy

spanks numero_uno_coolio
Tap to rate this tab
# A B C D E F G H I J K L M N O P Q R S T U V W X Y Z