Song name
# A B C D E F G H I J K L M N O P Q R S T U V W X Y Z

Filter - Take A Picture tab

Hello. This is my first posting of guitar tabs. 
Artist: Filter
Song: Take A Picture
Album: Title of Record

Tuning: Standard
Chords used:
Asus2- A-Dsus4-D (Verse)
Asus2 - Dsus2 - B5 - C (Chorus)

The electric guitar starts the song with:
e|--0-0----0-0-0-0|--3---2---3---2----|
B|--0h2----0h2\3\2|--3---3---3---3----|
G|--2-2----2-2-2-2|--2---2---2---2----|
D|--2-2----2-2-2-2|--0---0---0---0----|
A|--0-0----0-0-0-0|--0---0---0---0----|
E|----------------|-------------------|

Then the 12 string guitar plays the same riff 
(Strumming) 
e|--0-0----0-0-0-0|--3---2---3---2----|
B|--0-2----0-2-3-2|--3---3---3---3----|
G|--2-2----2-2-2-2|--2---2---2---2----|
D|--2-2----2-2-2-2|--0---0---0---0----|
A|--0-0----0-0-0-0|--0---0---0---0----|
E|----------------|-------------------|
 Then, the rest of the band plays the riff once and enters the verse.

e|--0-0----0-0-0-0|--3---2---3---2----|
B|--0h2----0h2\3\2|--3---3---3---3----|
G|--2-2----2-2-2-2|--2---2---2---2----|
D|--2-2----2-2-2-2|--0---0---0---0----|		X2
A|--0-0----0-0-0-0|--0---0---0---0----|
E|----------------|-------------------|

Verse1


e|--0-0----0-0-0-0|--3---2---3---2----|
B|--0h2----0h2-3-2|--3---3---3---3----|
G|--2-2----2-2-2-2|--2---2---2---2----|
D|--2-2----2-2-2-2|--0---0---0---0----|		X4
A|--0-0----0-0-0-0|--0---0---0---0----|
E|----------------|-------------------|

Verse2 to chorus

e|--0-0----0-0-0-0|--3---2---3---2----|
B|--0-2----0-2-3-2|--3---3---3---3----|
G|--2-2----2-2-2-2|--2---2---2---2----|
D|--2-2----2-2-2-2|--0---0---0---0----|	X2	Then,
A|--0-0----0-0-0-0|--0---0---0---0----|
E|----------------|-------------------|


(strumming)
|--0--|--0--|--0--|--3--|
|--0--|--3--|--0--|--3--|
|--2--|--2--|--4--|--0--|	X6
|--2--|--0--|--4--|--0--|
|--0--|--0--|--2--|--0--|
|--x--|--0--|--0--|--3--|


Verse 3

e|--0-0----0-0-0-0|--3---2---3---2----|
B|--0-2----0-2-3-2|--3---3---3---3----|
G|--2-2----2-2-2-2|--2---2---2---2----|		X6
D|--2-2----2-2-2-2|--0---0---0---0----|		
A|--0-0----0-0-0-0|--0---0---0---0----|
E|----------------|-------------------|


(strumming)
|--0--|--0--|--0--|--3--|
|--0--|--3--|--0--|--3--|
|--2--|--2--|--4--|--0--|
|--2--|--0--|--4--|--0--|		X4
|--0--|--0--|--2--|--0--|
|--x--|--0--|--0--|--3--|

Verse4 to outro
e|--0-0----0-0-0-0|--3---2---3---2----|
B|--0-2----0-2-3-2|--3---3---3---3----|
G|--2-2----2-2-2-2|--2---2---2---2----|		X4
D|--2-2----2-2-2-2|--0---0---0---0----|		
A|--0-0----0-0-0-0|--0---0---0---0----|
E|----------------|-------------------|

Outro Chorus
(strumming)
|--0--|--0--|--0--|--3--|
|--0--|--3--|--0--|--3--|
|--2--|--2--|--4--|--0--|
|--2--|--0--|--4--|--0--|		X6
|--0--|--0--|--2--|--0--|
|--x--|--0--|--0--|--3--|


Verse1:
Awake on my airplane
Awake on my airplane
My skin is bare
My skin is theirs
Awake on my airplane
Awake on my airplane
My skin is bare
My skin is theirs

Verse2
I feel like a new-born
And I feel like a new-born
Awake on my airplane
Awake on my airplane
I feel so real

Chorus
Could you take my picture
‘Cause I won't remember
Could you take my picture
‘Cause I won't remember 
(repeat)-Yeah



Verse3
I don't believe in
I don't believe in your sanctity; your privacy
I don't believe in
I don't believe in sanctity or hypocrisy
Can everyone agree that no one should be left alone
Can everyone agree that they should not be left alone
And I feel like a new-born
And I feel like a new-born 
	(kicking and screaming)

Chorus to Outro
Could you take my picture
‘Cause I won't remember
Could you take my picture
‘Cause I won't remember 
(Repeat)

Hey dad what do you think about your son now?
Hey dad what do you think about your son now?

Could you take my picture
‘Cause I won't remember
Could you take my picture
‘Cause I won't remember 
Could you take my picture
‘Cause I won't remember
Could you take my picture
‘Cause I won't remember 
Could you take my picture
‘Cause I won't remember
Could you take my picture
‘Cause I won't remember 
Tap to rate this tab
 
# A B C D E F G H I J K L M N O P Q R S T U V W X Y Z