Song name
# A B C D E F G H I J K L M N O P Q R S T U V W X Y Z

Filter - The Only Way tab

Artist: Filter
Song: The Only Way (Is the Wrong Way)
Album: The Amalgamut (2002)
Tuning: Drop D

Strumming patterns are only roughly notated, but I'm sure you can figure them out.

Intro/Verses:

|--------------------------------------|
|--------------------------------------|
|-11-11-11-11-11-11-11-11--12-11-18-16-|
|-x--x--x--x--x--x--x--x---x--x--x--x--|
|-9--9--9--9--9--9--9--9---10-9--16-14-|
|-0--0--0--0--0--0--0--0---0--0--0--0--|

|-------------------------------------------------|
|-------------------------------------------------|
|-14-14-14-14-14-14-14-14-14-14-14-14-14-14-14-14-|
|-12-12-12-12-12-12-12-12-12-12-12-12-12-12-12-12-|
|-12-12-12-12-12-12-12-12-12-12-12-12-12-12-12-12-|
|-12-12-12-12-12-12-12-12-12-12-12-12-12-12-12-12-|

Pre-Chorus:

|-------------------------------------------|
|-------------------------------------------|
|-------------------------------------------|
|-9-9-9-9-9-9-9--7--12-12-12-12-12-12-12-12-|
|-7-7-7-7-7-7-7--5--10-10-10-10-10-10-10-10-|
|-7-7-7-7-7-7-7--5--10-10-10-10-10-10-10-10-|

|-----------------------------------|
|-----------------------------------|
|-----------------------------------|
|-9-9-9-9-9-9-9--7--5-5-5-5-5-5-5-5-|
|-7-7-7-7-7-7-7--5--3-3-3-3-3-3-3-3-|
|-7-7-7-7-7-7-7--5--3-3-3-3-3-3-3-3-|

Chorus:

|-------------------------------------------------|
|-------------------------------------------------|
|-7-7-7-7-7--7-7-7-7-7-7--------------------------|
|-7-7-7-7-7--7-7-7-7-7-7--9-9-9-9-9-9-9-9-9-9-9-9-|
|-5-5-5-5-5--0-0-0-0-0-0--7-7-7-7-7-7-7-7-7-7-7-7-|
|-5-5-5-5-5--0-0-0-0-0-0--7-7-7-7-7-7-7-7-7-7-7-7-| x3

|------------------------------------------------------|
|------------------------------------------------------|
|-7-7-7-7-7--7-7-7-7-7-7-------------------------------|
|-7-7-7-7-7--7-7-7-7-7-7--9-9-9-9-9-9-9-9--12-12-12-12-|
|-5-5-5-5-5--0-0-0-0-0-0--7-7-7-7-7-7-7-7--10-10-10-10-|
|-5-5-5-5-5--0-0-0-0-0-0--7-7-7-7-7-7-7-7--10-10-10-10-|

And there you have it. Comments/suggestions welcome as always.
Tap to rate this tab
# A B C D E F G H I J K L M N O P Q R S T U V W X Y Z