Song name
# A B C D E F G H I J K L M N O P Q R S T U V W X Y Z

Filter - Cancer tab

Help us improve GuitareTab! Take a short survey!
От: for www.ultimate-guitar.com 
Кому: 
Тема: New Tabs
Дата: 3 июля 2000 г. 4:46

Filter "Cancer".
 Tabbed by verhaney, verhaney84@hotmail.com.
  
Intro



e-----------------------------------

B-----------------------------------

G-----------------------------------

D---0---3------0---3----------------

A--------------0---3----------------

D-----------------------------------



Chorus



e-----------------------------------

B-----------------------------------

G-----------------------------------

D---8--10--6--5----8----0--3-3-3/6-5

A---8--10--6--5----8----0--3-3-3/6-5

D---8--10--6--5----8----0--3-3-3/6-5



That is it beside the solo which isnt important

enough to tab out. 
:: Ultimate Guitar Archive :: 
http://www.ultimate-guitar.com 

Related for Cancer tab