Song name
# A B C D E F G H I J K L M N O P Q R S T U V W X Y Z

Filter - Captain Bligh tab

От: for www.ultimate-guitar.com 
Кому: 
Тема: New Tabs
Дата: 8 июля 2000 г. 0:41

Filter, Captain Bligh.
 Tabbed by Flake, photonman17@hotmail.com.
  
band: Filter

song: Captain Bligh

album: Title of Record

tuning: Drop D



Verse

E--------------------------------------

B--------------------------------------

G--------------------------------------

D--------------------------------------

A--------------------------------8--8--

D--0-10-12-12\-0-10-12-10-12-12--8--8--



Pre-Chorus

E-------------------------

B-------------------------

G-------------------------

D--10---5-5-5-5--3-3-3-3--

A---8---3-3-3-3--1-1-1-1--

D---8---3-3-3-3--1-1-1-1--



Chorus

E----------------------------------------------------

B----------------------------------------------------

G----------------------------------------------------

D--14-14-14-14----11-11-11-11/5\10--6-3-3-3-0-3-3-3--

A--12-12-12-12-----9--9--9--9/5\-8--6-3-3-3-0-3-3-3--

D---0--0--0--0--0--9--9--9--9/5\-8--6-3-3-3-0-3-3-3--



E----------------------------------------------------

B----------------------------------------------------

G----------------------------------------------------

D--14-14-14-14----11-11-11-11/5\10--6-3-3-3-0-3-1-1-1--

A--12-12-12-12-----9--9--9--9/5\-8--6-3-3-3-0-3-1-1-1--

D---0--0--0--0--0--9--9--9--9/5\-8--6-3-3-3-0-3-1-1-1--



Outro

E-----------------------------------

B-----------------------------------

G-----------------------------------

D--5-5-5-5-8-8-8-3-3-3-3-3-3-3-3-0--

A--5-5-5-5-8-8-8-3-3-3-3-3-3-3-3-0--

D--5-5-5-5-8-8-8-3-3-3-3-3-3-3-3-0--





Tempo increases

E------------------------------------------------------------

B------------------------------------------------------------

G------------------------------------------------------------

D--5-5-5-5-5-5--0-8-8-8-8-8-8--0-3-3-3-3-3-3--0-3-3-3-3-3-3--

A--5-5-5-5-5-5--0-8-8-8-8-8-8--0-3-3-3-3-3-3--0-3-3-3-3-3-3--

D--5-5-5-5-5-5--0-8-8-8-8-8-8--0-3-3-3-3-3-3--0-3-3-3-3-3-3--





Sorry but I haven't figured out the wah wah solos yet 
:: Ultimate Guitar Archive :: 
http://www.ultimate-guitar.com 

Tap to rate this tab
# A B C D E F G H I J K L M N O P Q R S T U V W X Y Z