Song name
# A B C D E F G H I J K L M N O P Q R S T U V W X Y Z

Filter - Take A Picture tab

#----------------------------------PLEASE NOTE--------------------------------#
#This file is the author's own work and represents their interpretation of the#
#song. You may only use this file for private study, scholarship, or research.#
#-----------------------------------------------------------------------------#
#-- File created with Instab - http://www.pconline.com/~smcarey/instab.html --#
#-----------------------------------------------------------------------------#

Author/Artist: Filter
Title: Take a Picture

H hammer on
X scratch note

Standard Tuning

--|--------------------------------------------------------------|------------|
--|--------------------------------------------------------------|------------|
--|--------------------------------------------------------------|------------|
--|-9h11--11-11-11-11-9---11--11--9h11--11-11-11-11-12---11--11--|------------|
--|-0-----0--0--0--0--0---0---0---0-----0--0--0--0--0----0---0---|------------|
--|-x-----x--x--x--x--x---x---x---x-----x--x--x--x--x----x---x---|------------|
   Intro/Verse G1 Part1

--|-x----x---------------|--|-------------------------------------------------|
--|-10---10--------------|--|-------------------------------------------------|
--|-12---12--------------|--|-------------------------------------------------|
--|-x----x----x------x---|2x|-------------------------------------------------|
--|-12---12---12-----12--|--|-------------------------------------------------|
--|-10---10---10-----10--|--|-------------------------------------------------|
   Part 2

--|-x-----x--x---x----x--x---x--x----x----x--x---x----x--x---x---|------------|
--|-10----10-10--10---10-10--10-10---10---10-10--10---10-10--10--|------------|
--|-9-----9--9---9----9--9---9--9----9----9--9---9----9--9---9---|------------|
--|-11----11-11--11---11-11--11-11---11---11-11--12---11-11--11--|------------|
--|-0-----0--0---0----0--0---0--0----0----0--0---0----0--0---0---|------------|
--|-x-----x--x---x----x--x---x--x----x----x--x---x----x--x---x---|------------|
   Intro/Verse G2 Acoustic Part 1

--|-x----x----x----x---x----x----x---x---|--|---------------------------------|
--|-10---10---10---10--10---10---10--10--|--|---------------------------------|
--|-12---12---11---11--11---11---11--11--|--|---------------------------------|
--|-x----x----x----x---x----x----x---x---|2x|---------------------------------|
--|-12---12---12---12--12---12---12--12--|--|---------------------------------|
--|-10---10---10---10--10---10---10--10--|--|---------------------------------|
    Part 2

--|------------------|--|-----------------------------------------------------|
--|------------------|--|-----------------------------------------------------|
--|------------------|--|-----------------------------------------------------|
--|-7---11---4---x---|--|-----------------------------------------------------|
--|-0---12---4---0---|--|-----------------------------------------------------|
--|-x---x----x---5---|--|-----------------------------------------------------|
   Chorus G2 Chords Strum
Tap to rate this tab
 
# A B C D E F G H I J K L M N O P Q R S T U V W X Y Z