Song name
# A B C D E F G H I J K L M N O P Q R S T U V W X Y Z

Filter - Where Do We Go From Here tab

#----------------------------------PLEASE NOTE--------------------------------#
#This file is the author's own work and represents their interpretation of the#
#song. You may only use this file for private study, scholarship, or research.#
#-----------------------------------------------------------------------------#
#-- File created with Instab - http://www.pconline.com/~smcarey/instab.html --#
#-----------------------------------------------------------------------------#

Author/Artist: Filter
Title: Where do we go from here

D Tuning (DADGBe)

----|------------------|--------|------------------|--------------------------|
----|------------------|--------|------------------|--------------------------|
----|------------------|--------|------------------|--------------------------|
----|-11---x---x---x---|--------|-11---x---x---x---|--------------------------|
----|-9----5---5---2---|--------|-9----5---5---5---|--------------------------|
----|-x----7---5---2---|--------|-x----7---5---7---|--------------------------|
     Verse/Chords Chords Strum    End Strum

--|---------|-----------------------------------------------------------|--|--|
--|---------|-----------------------------------------------------------|--|--|
--|---------|-----------------------------------------------------------|--|--|
--|-x-x-x-x-|-x---x-x--x--x---x--x--x---x---x---x---x---x---x---x---x---|--|--|
--|-5-5-5-5-|-5/8-8-8--8--0---0--0--10--10--10--10--10--10--10--10--10--|--|--|
--|-5-5-5-5-|-5/8-8-8--8--0---0--0--10--10--10--10--10--10--10--10--10--|--|--|
    P.M..    PreChorus

----|-0--------|--------------------------------------------------------------|
----|-x--------|--------------------------------------------------------------|
----|-11-------|--------------------------------------------------------------|
----|-11-------|--------------------------------------------------------------|
----|-9--------|--------------------------------------------------------------|
----|-x--------|--------------------------------------------------------------|
     Interlude Chord Strum
Tap to rate this tab
 
# A B C D E F G H I J K L M N O P Q R S T U V W X Y Z