Song name
# A B C D E F G H I J K L M N O P Q R S T U V W X Y Z

Filter - American Cliche tab

This tab is in D-A-D-G-B-E
Filter uses really saturated distortion. P = palm muted H natural harmonics.
To see my play this go to http://www.youtube.com/watch?v=eTjBjNKQvzM
Im also at facebook.com/darren.dobyns



   h h h h h h
E--4-4--------|  Play this is the intro harmonic part 8 times. 
B--4-4--------|  Play this right on top of the 4th fret wire.
G--4-4--------|
D--4-4--------|
A-------------|
D------4-4-4-4|
   h h h h h h 

   
E--------------------------------------|     When playing this palm muted part use 
B--------------------------------------|     up and down strokes. Play this part 11
G--------------------------------------|     times.
D-------------------------------6-6-6-6|
A-------------------------------6-6-6-6|
D--0-2-2-3-0-3-0-0-0--0-2-2-3-0-6-6-6-6|
   P P P P P P P P P  P P P P P


E------------------------------------------------------------------------|
B------------------------------------------------------------------------|
G------------------------------------------------------------------------|
D---------0-0----6-5-3-----0-0----6-5-3-----0-0----6-5-3-----0-0----6-5-3|
A---------0-0----6-5-3-----0-0----6-5-3-----0-0----6-5-3-----0-0----6-5-3|
D-5-5-5-5-0-0----6-5-3-----0-0----6-5-3-----0-0----6-5-3-----0-0----6-5-3|
  H H H H                                                               Rest.


E--------------------------------------|     Play this 2 times quite. Then kick it 
B--------------------------------------|    in again full throttle for 11 
G--------------------------------------|     more times.
D-------------------------------6-6-6-6|
A-------------------------------6-6-6-6|
D--0-2-2-3-0-3-0-0-0--0-2-2-3-0-6-6-6-6|
   P P P P P P P P P  P P P P P


E------------------------------------------------------------------------|
B------------------------------------------------------------------------|
G------------------------------------------------------------------------|
D---------0-0----6-5-3-----0-0----6-5-3-----0-0----6-5-3-----0-0----6-5-3|
A---------0-0----6-5-3-----0-0----6-5-3-----0-0----6-5-3-----0-0----6-5-3|
D-5-5-5-5-0-0----6-5-3-----0-0----6-5-3-----0-0----6-5-3-----0-0----6-5-3|
  H H H H                                                              then.


E---------------------------|    play 3 times.
B---------------------------|
G---------------------------|
D-4-4-4-4-4-4-4-4--7-7-7---7|
A-4-4-4-4-4-4-4-4--7-7-7-5-5|
D-4-4-4-4-4-4-4-4--5-5-5-5-5|


E-------------------------|    Play this right after previous part 1 time.
B-------------------------|
G-------------------------|
D-4-4-4-4-4-4-4-4-3---2---|
A-4-4-4-4-4-4-4-4-3---2---|
D-4-4-4-4-4-4-4-4-3---2---|
                          Rest.

 
   h h h h h h
E--4-4--------|  Play this intro part again 6 times.  It is also heard in the 
B--4-4--------| back ground real quiet through out the rest of the song.
G--4-4--------|  Then....
D--4-4--------|
A-------------|
D------4-4-4-4|
   h h h h h h


   
E--------------------------------------|     When playing this palm muted part use 
B--------------------------------------|     up and down strokes. 
G--------------------------------------|     Play this part around 14 times.
D-------------------------------6-6-6-6|    on the last time let the last
A-------------------------------6-6-6-6|    strum ring out till the end.
D--0-2-2-3-0-3-0-0-0--0-2-2-3-0-6-6-6-6|    And thats it hope you enjoy it.
   P P P P P P P P P  P P P P P            Thanks for viewing.



To see me play this go to 
http://www.youtube.com/watch?v=eTjBjNKQvzM

Im also at facebook.com/darren.dobyns
Tap to rate this tab
# A B C D E F G H I J K L M N O P Q R S T U V W X Y Z