Song name
# A B C D E F G H I J K L M N O P Q R S T U V W X Y Z

Filter - Its Just You tab

INTRO

C|--0----0----0----0--------------0--------|
B|--1---1----1----1--------------1--------|
G|--0----2----2----2--------------2--------|
D|--2----3----0----3---0-0h2p1p0--3--------|
A|--3----0----0----3--------------0--------|
D|-----------------------------------------|

VERSE

C|------------0-----------0----------------|
B|------------1-----------1----------------|
G|------------2-----------2----------------|
D|-0-0h2p1p0--3--0-2p1p0--3----------------|
A|------------0-----------0----------------|
D|-----------------------------------------|

C|-----------0----0---0--0-----------------|
B|-----------0----0---1--1-----------------|
G|-----------0----0---2--2-----------------|
D|---------7-7--5-5-0-0--3-----------------|
A|---------7-7--5-5-0-0--3-----------------|
D|-0-2-3-5-7-7--5-5-0-0--0-----------------|

CHORUS
 
C|--0----0----0----0------------0----------|
B|--1---1----1----1------------1----------|
G|--0----2----2----2------------2----------|
D|--2----3----0----3---0-2p1p0--3----------|
A|--3----0----0----3------------0----------|
D|------------0----0-----------------------|



| /  slide up
| \  slide down
| h  hammer-on
| p  pull-off
| ~  vibrato
| +  harmonic
| x  Mute note
Tap to rate this tab
# A B C D E F G H I J K L M N O P Q R S T U V W X Y Z