Song name
# A B C D E F G H I J K L M N O P Q R S T U V W X Y Z

Filter - Where Do We Go tab

-------------------------------------------------------------------------------
			     Where Do We Go - FILTER
-------------------------------------------------------------------------------

By:ChaserJz@aol.com

I'm not completly sure about this tab, but it sounds damn close to
the song, just use a lot of distortion on Electric Parts.  And Listen
to song for timing, I am just providing the chords!

Drop D Tune
Intro and Verse:
e|---------------------------------------------------------------------------|
B|---------------------------------------------------------------------------|
G|7777777\x4-4444444/7777777\444444------------------------------------------|
D|7777777\x4-4444444/7777777\444444--listin for timing-----------------------|
A|9999999\x2-2222222/5555555\222222--and struming of chords------------------|
D|9999999\x2-2222222/5555555\222222------------------------------------------|
Pre-Chorus on Elect
e|-----------------------------------------------------------------------------------------|
B|-----------------------------------------------------------------------------------------|
G|-----------------------------------------------------------------------------------------|
D|xxxx-88/1010-0---------------------------------------------------------------------------|
A|xxxx-88/1010-0---------------------------------------------------------------------------|
D|xxxx-88/1010-0---------------------------------------------------------------------------|
Chorus
e|---------------------------------------------------------------------------|
B|---------------------------------------------------------------------------|
G|---------------------------------------------------------------------------|
D|9999999-0222222222-5555555555-22222222-- end on 0--------------------------|
A|9999999-0222222222-5555555555-22222222----------0--------------------------|
D|9999999-0222222222-5555555555-22222222----------0--------------------------|

This is a kick ass song and filter rules!

===============================================================================
Tap to rate this tab
# A B C D E F G H I J K L M N O P Q R S T U V W X Y Z