Song name
# A B C D E F G H I J K L M N O P Q R S T U V W X Y Z

Final Fantasy - Jechts Theme tab

----------------------------------------------------------------------------
			     Jecht's Theme - Final Fantasy
----------------------------------------------------------------------------
Tabbed by: Anne Mennema
Email: Amennema@hotmail.com

This is a song you dont hear much in FFX; only when finding a jecht spehere and i think
another time later in the game, but i found it a cool song, and since i couldnt find it
i decided to tab it myself. this is my first tab though, so you might find out that i 
made some mistakes, but, i am quite sure this is good.
While you hear the E and the A on the background a guitar plays this:

e|-------0----------0-------------0--------------------|
B|-----0---3---3-3----3----------0---3-2-3-2-0---------|
G|-0-1---------2-2----2------0-1---------------4-5-6---| x2
D|-----------------------------------------------------|
A|-----------------------------------------------------|
E|-----------------------------------------------------|

e|-----0-2-0--0--0--2-0----------0-2-0-2-3-3-2---------|
B|-1-2--------2--2--2-2------1-2---------------0-1-2---|
G|-----------------------------------------------------|x1
D|-----------------------------------------------------|
A|-----------------------------------------------------|
E|-----------------------------------------------------|

e|-------0----------0-------------0--------------------|
B|-----0---3---3-3----3----------0---3-2-3-2-0---------|
G|-0-1---------2-2----2------0-1---------------4-5-6---|x1
D|-----------------------------------------------------|
A|-----------------------------------------------------|
E|-----------------------------------------------------|

e|---2--2--2-5-5-4-2-4-------0-2-0-2-3-3-2-3-3-2-0-2---|
B|-0--0--0---------------1-2---------------------------|
G|-----------------------------------------------------|x1
D|-----------------------------------------------------|
A|-----------------------------------------------------|
E|-----------------------------------------------------|

e|-------0----------0-------------0--------------------|
B|-----0---3---3-3----3----------0---3-2-3-2-0---------|
G|-0-1---------2-2----2------0-1---------------4-5-6---| x1
D|-----------------------------------------------------|
A|-----------------------------------------------------|
E|-----------------------------------------------------|

Then a second guitar plays
e|--7-5-3-0---0-3-0-5-0-0-0----7-5-3-0---0-3-0-5-0-0-0-|
B|-----------------------------------------------------|
G|-----------------------------------------------------|
D|-----------------------------------------------------|
A|-----------------------------------------------------|
E|-----------------------------------------------------|

e|-12-7-3-0-0---12-7-3-0-0-----5/7-0-----12------------|
B|-----------------------------------3-5---------------|
G|-----------------------------------------------------|
D|-----------------------------------------------------|
A|-----------------------------------------------------|
E|-----------------------------------------------------|
Tap to rate this tab
 
# A B C D E F G H I J K L M N O P Q R S T U V W X Y Z