Song name
# A B C D E F G H I J K L M N O P Q R S T U V W X Y Z

Final Fantasy - Town Where The Sunlight Doesnt Reach Slums tab

Game: Crisis Core: Final Fantasy VII
Song: Town Where the Sunlight Doesn't Reach
Composed by: Takeharu Ishimoto
Tabbed by: Zio

Tuning: Standard

Key:
~ = vibrato
p = pull-off
h = hammer-on
b = bend
/ = slide
pm = palm-mute
tr = tremolo picking

Main Background Part:

e|-----------------------|
B|-----------------------| 
G|-----------------------| 
D|-----------------------| 
A|-----------------------| 
E|-5-5---5/8--5/8/5--5-3-|
 
Chorus:

e|-----------------------|
B|-----------------------| 
G|-----------------------| 
D|---5-------------------| 
A|-7---7---5-4-0---------| 
E|-----------------------|

Chorus 2:
 

e|-----------------------|
B|-----------------------| 
G|-----------------------| 
D|-----------------------| x5
A|-7-5-4-0---------------|  
E|---------3-------------|

e|-----------------------|
B|-----------------------| 
G|-----------------------| 
D|-----------------------| x1
A|-0---------------------|  
E|-----------------------|

Short Background Solo:

e|-12--17-------------------------------------|
B|---------13-12-13--12-13-12--15-13-12-10-10-| 
G|--------------------------------------------| 
D|--------------------------------------------|
A|--------------------------------------------|  
E|--------------------------------------------|

That's what I got by ear. I hope this helps you guys!
Tap to rate this tab
 
# A B C D E F G H I J K L M N O P Q R S T U V W X Y Z