Guitaretab - guitar tabs
Song name
# A B C D E F G H I J K L M N O P Q R S T U V W X Y Z

Final Fantasy - The Nightmares Beginning tab

             =================================================
            |             THE NIGHTMARE'S BEGINNING            |
            |                Final Fantasy VII                 |
            |                Vincent's Theme                   |
             =================================================
                        Composed by Nobuo Uematsu
                      -----------------------------
                           Tabs by Skilletface
                          ---------------------

Tuning: Standard E
Hammer on: h
Pull off: p





e|-----------------------------------|-------------------------------------|
B|-----6-----6-----8-----6-----6-----|-------6-----6-----8-----6-----6-----|
G|-6-------7-----7-----7-----7-----7-|---5-------7-----7-----7-----7-----7-|
D|---7---7-----7-----7-----7-----7---|-----7---7-----7-----7-----7-----7---|
A|5----------------------------------|-5-----------------------------------|
E|-----------------------------------|-------------------------------------|

[ Tab from: http://www.guitaretab.com/f/final-fantasy/175366.html ]
e|-----------------------------------|-------------------0-----------------|
B|-----6-----6-----8-----6-----6-----|-------8-----6-----------6-----8-----|
G|-5-------7-----7-----7-----7-----7-|---4-------7-----7-----7-----7----7--|
D|---7---7-----7-----7-----7-----7---|-----7---7-----7-----7-----7-----7---|
A|5----------------------------------|-5-----------------------------------|
E|-----------------------------------|-------------------------------------|
                                 X2

e|----------------------------------|--------------------------------------|
B|----------------------------------|--------------------------------------|
G|-----5h6p5-------5h6p5------------|-----4h6p4--------4h6p4---------------|
D|---4-------7-0-4-------7----------|---4-------4----4-------4-------------|
A|-5--------------------------------|-5------------5-----------------------|
E|----------------------------------|--------------------------------------|
                                 X2

e|-5-----5-----5-----8-----6-----5------3------3------3------3------3------|
B|----------------------------------------3------3------3-------3-----3----|
G|------------------------------------------3------3------3-------3-----3--|
D|---7-----7-----7-----7-----7-----7---------------------------------------|
A|-----5-----5-----5-----5-----5-----5-------------------------------------|
E|-----------------------------------------------------------0-------------|
                                 X2


*note this was played by ear*
will be some mistakes.

Enjoy!

Andrew B. joeymaggot_01@yahoo.com





Related for The Nightmares Beginning tab
Advertisement will be closed in 10 seconds