Guitaretab - guitar tabs
Song name
# A B C D E F G H I J K L M N O P Q R S T U V W X Y Z

Final Stand - New Beginning tab

-------------------------------------------------------------------------------
New Beginning
-------------------------------------------------------------------------------

By: FINAL STAND

Verse
e|-0------------------3--------------------0-------------------2-------------|
B|-1------------------3--------------------1-------------------3-------------|
G|-0------------------0--------------------0-------------------2-------------|
D|-2------------------0--------------------2-------------------0-------------|
A|-3------------------2--------------------3---------------------------------|
E|--------------------3------------------------------------------------------|
   Nobody likes me my life is stuck        My mom got hit by a semi truck
  (Repeat through the entire verse)
[ Tab from: http://www.guitaretab.com/f/final-stand/120547.html ]
Chorus (Mucho Distortion)
e|---------3-----3-----------------------3----------5------------------------|
B|---------3-----3-----------------------3----------5------------------------|
G|---------5-----3-----------------------5----------5------------------------|
D|---------5-----5-----------------------5----------7------------------------|
A|---------3-----5-----------------------3----------7------------------------|
E|---------x-----3-----------------------x----------5------------------------|
    Itís a new beginning, one I          plan to be winning, and I
e|-------3------------3------3-----------3-----------3---------3-------------|
B|-------3------------3------3-----------3-----------3---------3-------------|
G|-------5------------3------5-----------5-----------3---------5-------------|
D|-------5------------5------5-----------5-----------5---------5-------------|
A|-------3------------5------3-----------3-----------5---------3-------------|
E|-------x------------3------x-----------x-----------3---------x-------------|
         Plan to come out on top         Think about what itís not
Bridge (Mucho Distortion)
e|--3------------------------------------3-----------------------------------|
B|--3------------------------------------3-----------------------------------|
G|--5------------------------------------3-----------------------------------|
D|--5---*8-------------------------------5---*8------------------------------|
A|--3------------------------------------5-----------------------------------|
E|--x------------------------------------3-----------------------------------|
    Nobody cares about what I think, and nobody cares what I do
e|--5-----------------------------3-3-3--------------------------------------|
B|--5-----------------------------3-3-3--------------------------------------|
G|--5-----------------------------5-5-3--------------------------------------|
D|--7---*8------------------------5-5-5--------------------------------------|
A|--7-----------------------------3-3-5--------------------------------------|
E|--5-----------------------------x-x-3--------------------------------------|
    And I donít really care about     you 
Solo
e|-----------------------------------------------------0---------------------|
B|-----0-----------------------------------------------------0---------------|
G|---------1h2p1-------2----2p1--------1h2p1-------1h2---1h2-----------------|
D|---2-----------2--------0-----2----2-------2---2---------------------------|
A|-------0-----------4---0----------0-----------0----------------------------|
E|-0---------------0---------------2-----------2-----------------------------|

e|-------------------------------------------0------------0------------------|
B|-----0-----------------0---------------------------1p0-----0p1-------------|
G|----------------------------------------2-------2--------------2-----------|
D|---2------6p4-6p4-4p2----2-4-6p4--2---4-------2----------------------------|
A|-------0----------------------------4--------------------------------------|
E|-0-------------------------------------------------------------------------|
===============================================================================