Song name
# A B C D E F G H I J K L M N O P Q R S T U V W X Y Z

Finbar Joseph - Jazz Trip tab

(SPEED) = 96 Acid Jazz

Am7          D7        Am7         D7
e|--0---0---|--2---2---|--0---0---|--2-2-2-2-2|
B|--1---1---|--1---1---|--1---1---|--1-1-1-1-1|
G|--0---0---|--2---2---|--0---0---|--2-2-2-2-2|
D|--2---2---|--0---0---|--2---2---|--0-0-0-0-0|
A|--0---0---|----------|--0---0---|-----------|
E|----------|----------|----------|-----------|

e|--------------------|--------------|-------------------|---------|
B|--------------------|-----1-3-1----|-------------------|---------|
G|--2----2-0-2-----0--|--2-----------|--2----2-0-2----0--|---------|
D|--------------------|--------------|-------------------|--4-0----|
A|--------------------|--------------|-------------------|---------|
E|--------------------|--------------|-------------------|---------|

e|--3-3-0----3-0|-2----------------|-----------------|-------------|
B|--------------|----------3-1----0|-----------------|-------------|
G|--------------|-----2------------|-2---2-0-2----0--|-------------|
D|--------------|------------------|-----------------|-4--0--------|
A|--------------|------------------|-----------------|-------------|
E|--------------|------------------|-----------------|-------------|

e|------------0-|---------------|----3--2-------|--0---------------|
B|--0-3----0----|----0----------|----------3--0-|------0-----------|
G|--------------|-------2--2--0-|---------------|---------2--2--0--|
D|--------------|---------------|---------------|------------------|
A|--------------|---------------|---------------|------------------|
E|--------------|---------------|---------------|------------------|

e|-----------------0-|-2----0----2----0--|-3--2--2--0--0-----------|
B|-------0----1------|-------------------|----------------0--0-----|
G|--2----------------|-------------------|----------------------0--|
D|-------------------|-------------------|-------------------------|
A|-------------------|-------------------|-------------------------|
E|-------------------|-------------------|-------------------------|
                      F#m7b5             B7            Em7
e|-------------------|------------------|-------------|--0---------|
B|-------------------|--------------1---|-0-----------|--0---------|
G|-------------------|------0---2-------|-------------|--0---------|
D|--2----------------|--4---------------|-------------|--0---------|
A|-------------------|------------------|-----------2-|--2---------|
E|-------------------|------------------|-------------|--0---------|

First Tab :)
Tap to rate this tab
 
# A B C D E F G H I J K L M N O P Q R S T U V W X Y Z