Song name
# A B C D E F G H I J K L M N O P Q R S T U V W X Y Z

Finch - Untitled tab

-Intro (3x4)

listen to the untitled track on my profile to hear this song. it may help.

D|---------------------------------------------------|
A|---------------------------------------------------|
F|---------------------------------------------------|
C|7---7---6---7---8---7---10---8---7---7h8p7------7--|
G|-------------------------------------------8/10---8|
C|--0---0---0---0---0---0---0 ---0---0---------------|

D|------------------------------------------------------|
A|------------------------------------------------------|
F|------------------------------------------------------|
C|------------------------------------------------------|
G|10---10---10---8---8---8---8---8---8---7---7---7---7--|
C|---8---8 --- 8---8---8---8---7---7---7---7---7---7---7|

D|---------------------------------------------------|
A|---------------------------------------------------|
F|---------------------------------------------------|
C|7---7---6---7---8---7---10---8---7---7h8p7------7--|
G|-------------------------------------------8/10---8|
C|--0---0---0---0---0---0--- 0---0---0---------------|

D|-----------------------------------------------------------|
A|-----------------------------------------------------------|
F|-----------------------------------------------------------|
C|---------------------------------------10-8-7--------------|
G|10---10---10---8---8---8---8---8---8----------10-8-7-7-8-10|
C|---8 --- 8---8---8---8---8---7---7---7---------------------|

D|------------------------------------------------------|
A|------------------------------------------------------|
F|------------------------------------------------------|
C|0-----------------------------------------------------|
G|0------------(ring out until end of bar)--------------|
C|0-----------------------------------------------------|

*Repeat first four bars once

-Verse 1
(still 3X4)

D|-------------------------------------------------------|
A|-------------------------------------------------------|
F|-------------------------------------------------------|
C|--------10-------------------------------------8-11-8--|
G|----8-------12---10---7-----8h12p8-7h10p7-7-10-------10|
C|0-0---0---0----0----0---0-0----------------------------|

D|------------------------------------------------------------|
A|------------------------------------------------------------|
F|--------------------------------------------------12-15-12---|
C|--------10------------------10h14p10-8h12p8-10-14---------14|
G|----8-------12---10---7-------------------------------------|
C|0-0---0---0----0----0---0-0---------------------------------|

D|-----------------------------------------------|
A|-----------------------------------------------|
F|-----------------------------------------------|
C|-----------------------------------------------|
G|----10---8---12--8h10p8-----10---8---12--8h10p8|
C|8-8--- 8---8 ---8-------8-8--- 8---8---8-------|

D|-----------------------------------------------------------------------|
A|-----------------------------------------------------------------------|
F|-----------------------------------------------------------------------|
C|-----------------------------------12-10-8---------10-8-7--------------|
G|------12---10---13---12---10h12p10---------12-10-8--------10-8-7-7-8-10|
C|11-11---11---11---11---11----------------------------------------------|

*Repeat Verse 1 once

-Break down (SWITCHES TO 4x4)

D|----------------------------|---------------------------------|
A|----------------------------|---------------------------------|
F|----------------------------|---------------------------------|
C|0000-0000-0-0--0000---00-00-|0000-0000-0-0-----------5555-8888|
G|0000-0000-0-0--0000---00-00-|0000-0000-0-0-4444-7777----------|
C|0000-0000-0-0--0000---00-00-|0000-0000-0-0--------------------|

D|----------------------------|---------------------12------------11-----|
A|----------------------------|-------------------11--11--------10--10---|
F|----------------------------|------------------9------9------8------8--|
C|0000-0000-0-0--0000---00-00-|0000-0000-0-0---11--------11--10--------10|
G|0000-0000-0-0--0000---00-00-|0000-0000-0-0-13------------12------------|
C|0000-0000-0-0--0000---00-00-|0000-0000-0-0-----------------------------|

D|----------------------------|------------------------------------------|
A|----------------------------|------------------------------------------|
F|----------------------------|------------------------------------------|
C|0000-0000-0-0--0000---00-00-|0000-0000-0-0-------------8888-11 11 11 11|
G|0000-0000-0-0--0000---00-00-|0000-0000-0-0-7777-10101010---------------|
C|0000-0000-0-0--0000---00-00-|0000-0000-0-0-----------------------------|

D|----------------------------|---------------------12------------11-----|
A|----------------------------|-------------------11--11--------10--10---|
F|----------------------------|------------------9------9------8------8--|
C|0000-0000-0-0--0000---00-00-|0000-0000-0-0---11--------11--10--------10|
G|0000-0000-0-0--0000---00-00-|0000-0000-0-0-13------------12------------|
C|0000-0000-0-0--0000---00-00-|0000-0000-0-0-----------------------------|

D|----------------------------------------------------------------------------------------|
A|----------------------------------------------------------------------------------------|
F|----------------------------------------------99999999-1010101010101010-1212121212121212|
C|------------------------------/10--8--7-7-----------------------------------------------|
G|/12-------10--12--13--12----------------------------------------------------------------|
C|----------------------------------------------------------------------------------------|

D|----------------------------|
A|----------------------------|
F|----------------------------|
C|0000-0000-0-0---------------| <---- (let palm mute ring out for the rest of the half measure)
G|0000-0000-0-0---------------|
C|0000-0000-0-0---------------|

-Chorus (SWITCHES TO TRIPLETS)

D|-----------------------------------------------------------------------|
A|-----------------------------------------------------------------------|
F|------17-21-17----------17-21-17----------17-21-17----------15-18-15---|
C|15-19----------19-15-19----------19-15-19----------19-14-17----------17|
G|-----------------------------------------------------------------------|
C|-----------------------------------------------------------------------|

D|--------------------------------------------------------------------|
A|---------------------------15----------------17--------------18-----|
F|------14-17-14----------14----14----------14----14---------14---14--|
C|12-15----------15-12-15----------15-12-15---------15-12-15--------15|
G|--------------------------------------------------------------------|
C|--------------------------------------------------------------------|

D|------------------------------------------------------------------------|
A|------------------------------------------------------------------------|
F|---------14----------------14----------------14----14--17-15-14---------|
C|------15----15----------15----15----------15----15--------------17-15-14|
G|13-17----------17-13-17----------17-14-17-------------------------------|
C|------------------------------------------------------------------------|

D|--------------------------------------------------------------------|
A|---------------------------15----------------17--------------18-----|
F|------14-17-14----------14----14----------14----14---------14---14--|
C|12-15----------15-12-15----------15-12-15---------15-12-15--------15|
G|--------------------------------------------------------------------|
C|--------------------------------------------------------------------|

*Repeat Chorus once

-Verse two: part 1

D|-------------------------|
A|-------------------------|
F|-------------------------|
C|0000---0000---0000---\---|
G|0000---0000---0000---\---|
C|0000---0000---0000---\---|

D|13--------------13-----------------18-----------------15--------|
A|--11----------11--11-------------17--17-------------14--14------|
F|----10------10------10---------15------15---------12------12----|
C|------12--12----------12-----17----------17-----14----------14--|
G|--------13--------------13/19--------------19\16--------------16|
C|----------------------------------------------------------------|

D|----------13---------------12----------------17----------------15--------|
A|--------11--11-----------10--10------------15--15------------14--14------|
F|------10------10--------9------9---------14------14--------12------12----|
C|---12----------12-----10--------10-----15----------15----14----------14--|
G|\13--------------13\12------------12/17--------------17\16--------------16|
C|-------------------------------------------------------------------------|

*Repeat part 1 once

Verse 2: Part 2 (TRIPLETS)

D|-----------------------------------------|
A|-----------------------------------------|
F|-----------------------------------------|
C|-----------------7-----10-8-7-8-7-5------|
G|---8-5-0-7-4-------8-7--------------8-7-5|
C|000----------0000------------------------|

D|--------------------------------------------|
A|--------------------------------------------|
F|------------------------------10-9-7-12-10-9|
C|-----------------7----10-8-7----------------|
G|---8-5-0-7-4-------8-7----------------------|
C|000----------0000---------------------------|

D|-----------------------------------------|
A|-----------------------------------------|
F|-----------------------------------------|
C|-----------------7-----10-8-7-8-7-5------|
G|---8-5-0-7-4-------8-7--------------8-7-5|
C|000----------0000------------------------|

D|-----------------------------------------|
A|-----------------------------------------|
F|-----------------------------------------|
C|------------------0-0-0-0-0-0---(pause)---| <-- (ring out last palm mute)
G|---8-5-0-7-4------0-0-0-0-0-0------------|
C|000-----------00000-0-0-0-0-0------------|

D|-----------------------------------------|
A|-----------------------------------------|
F|-----------------------------------------|
C|-----------------7-----10-8-7-8-7-5------|
G|---8-5-0-7-4-------8-7--------------8-7-5|
C|000----------0000------------------------|

D|--------------------------------------------|
A|--------------------------------------------|
F|------------------------------10-9-7-12-10-9|
C|-----------------7----10-8-7----------------|
G|---8-5-0-7-4-------8-7----------------------|
C|000----------0000---------------------------|

D|-----------------------------------------|
A|-----------------------------------------|
F|-----------------------------------------|
C|-----------------7-----10-8-7-8-7-5------|
G|---8-5-0-7-4-------8-7--------------8-7-5|
C|000----------0000------------------------|

D|------------------------------------------------|
A|------------------------------------------------|
F|----------------------9-12-9----------12-15-12--|
C|-----------------8-11--------11-11-14---------14|
G|---8-5-0-7-4------------------------------------|
C|000----------0000-------------------------------|

D|-----------------------------------------|
A|-----------------------------------------|
F|-----------------------------------------|
C|-----------------7-----10-8-7-8-7-5------|
G|---8-5-0-7-4-------8-7--------------8-7-5|
C|000----------0000------------------------|

D|--------------------------------------------|
A|--------------------------------------------|
F|------------------------------10-9-7-12-10-9|
C|-----------------7----10-8-7----------------|
G|---8-5-0-7-4-------8-7----------------------|
C|000----------0000---------------------------|

D|-----------------------------------------|
A|-----------------------------------------|
F|-----------------------------------------|
C|-----------------7-----10-8-7-8-7-5------|
G|---8-5-0-7-4-------8-7--------------8-7-5|
C|000----------0000------------------------|

D|-----------------------------------------|
A|-----------------------------------------|
F|-----------------------------------------|
C|----------------------7-8-/10------------| <---(hold 10 until next bar)
G|---8-5-0-7-4-----/8-10-------------------|
C|000----------0000------------------------|

Pre Chorus: Part 1 (STILL TRIPLETS)

D|----------------------------------------------------------|
A|----------------------------------------------------------|
F|----------------------------------------------------------|
C|----5-8-5--------8-11-8---------11-14-11--------14-17-14--|
G|4-7-------7-7-10-------10-10-13---------13-13-16--------16|
C|----------------------------------------------------------|

D|-------------------------------------------------------------------|
A|-------------------------------------------------------------------|
F|-------------------------------------------------------------------|
C|------13-16-13----------12-15-12----------11-14-11-----------------|
G|12-15----------15-11-14----------14-10-13----------13-/12---13---12|
C|-------------------------------------------------------------------|

Pre Chorus: Part 2 (4x4)

D|----------------------------------------------------------|
A|----------------------------------------------------------|
F|----------------------------------------------------------|
C|0--------------------------------10---------/10-8-7-------|
G|0-----------------12-/13---------8-----------------/10---8|
C|0-----------12-14----------------8------------------------|

-Chorus (SWITCHES TO TRIPLETS)

D|-----------------------------------------------------------------------|
A|-----------------------------------------------------------------------|
F|------17-21-17----------17-21-17----------17-21-17----------15-18-15---|
C|15-19----------19-15-19----------19-15-19----------19-14-17----------17|
G|-----------------------------------------------------------------------|
C|-----------------------------------------------------------------------|

D|--------------------------------------------------------------------|
A|---------------------------15----------------17--------------18-----|
F|------14-17-14----------14----14----------14----14---------14---14--|
C|12-15----------15-12-15----------15-12-15---------15-12-15--------15|
G|--------------------------------------------------------------------|
C|--------------------------------------------------------------------|

D|------------------------------------------------------------------------|
A|------------------------------------------------------------------------|
F|---------14----------------14----------------14----14--17-15-14---------|
C|------15----15----------15----15----------15----15--------------17-15-14|
G|13-17----------17-13-17----------17-14-17-------------------------------|
C|------------------------------------------------------------------------|

D|--------------------------------------------------------------------|
A|---------------------------15----------------17--------------18-----|
F|------14-17-14----------14----14----------14----14---------14---14--|
C|12-15----------15-12-15----------15-12-15---------15-12-15--------15|
G|--------------------------------------------------------------------|
C|--------------------------------------------------------------------|

*Repeat Chorus once more

-Break down (SWITCHES TO 4x4)

D|----------------------------|---------------------------------|
A|----------------------------|---------------------------------|
F|----------------------------|---------------------------------|
C|0000-0000-0-0--0000---00-00-|0000-0000-0-0-----------5555-8888|
G|0000-0000-0-0--0000---00-00-|0000-0000-0-0-4444-7777----------|
C|0000-0000-0-0--0000---00-00-|0000-0000-0-0--------------------|

D|----------------------------|---------------------12------------11-----|
A|----------------------------|-------------------11--11--------10--10---|
F|----------------------------|------------------9------9------8------8--|
C|0000-0000-0-0--0000---00-00-|0000-0000-0-0---11--------11--10--------10|
G|0000-0000-0-0--0000---00-00-|0000-0000-0-0-13------------12------------|
C|0000-0000-0-0--0000---00-00-|0000-0000-0-0-----------------------------|

D|----------------------------|------------------------------------------|
A|----------------------------|------------------------------------------|
F|----------------------------|------------------------------------------|
C|0000-0000-0-0--0000---00-00-|0000-0000-0-0-------------8888-11 11 11 11|
G|0000-0000-0-0--0000---00-00-|0000-0000-0-0-7777-10101010---------------|
C|0000-0000-0-0--0000---00-00-|0000-0000-0-0-----------------------------|

D|----------------------------|---------------------12------------11-----|
A|----------------------------|-------------------11--11--------10--10---|
F|----------------------------|------------------9------9------8------8--|
C|0000-0000-0-0--0000---00-00-|0000-0000-0-0---11--------11--10--------10|
G|0000-0000-0-0--0000---00-00-|0000-0000-0-0-13------------12------------|
C|0000-0000-0-0--0000---00-00-|0000-0000-0-0-----------------------------|

D|------------------------------------------------------|
A|------------------------------------------------------|
F|------------------------------------------------------|
C|0-----------------------------------------------------|
G|0-------------------(rings out)--------------------------|
C|0-----------------------------------------------------|

    PM-|      PM|               PM|    PM|
D|----------------------------------------|
A|----------------------------------------|
F|----------------------------------------|
C|5555-5-33-3h5p3------77-7------------3-0|
G|----------------55-5------0000-4-5-7---0|
C|---------------------------------------0|
Tap to rate this tab
 
# A B C D E F G H I J K L M N O P Q R S T U V W X Y Z