Song name
# A B C D E F G H I J K L M N O P Q R S T U V W X Y Z

Finch - Dreams Of Psilocybin tab

-------------------------------------------------------------------------------
DREAMS OF PSILOCYBIN
by FINCH
"Say Hello To Sunshine" (2005)
-------------------------------------------------------------------------------
Tabbed by: Shaunedy
Email: shadow-dirapon@hotmail.co.uk

Half-step down (eb Bb Gb Db Ab Eb)
6/8

INTRO - vocals
VERSE
Randy Strohmeyer (0:43)

                     dududu dududu d  dudu
eb|---------------------------------------------------------------------------|
Bb|---------------------------------------------------------------------------|
Gb|---------------------------------------------------------------------------|
Db|-5-3-0------5-3-0----------------------------------------------------------|
Ab|------44-44-------444444-444444-4--4444------------------------------------|
Eb|---------------------------------------------------------------------------|

CHORUS
Alex Linares (0:57)

eb|---------------------------------------------------------------------------|
Bb|---------------------------------------------------------------------------|
Gb|-44444444--------------444-333333333-777-111111111111----------------------|
Db|-44444444-444-55555555-444-333333333-777-111111111111----------------------|
Ab|-22222222-444-55555555-222-111111111-555-9-9-9-9-9-9-----------------------|
Eb|----------222-33333333-----------------------------------------------------|

VERSE 2
Randy Strohmeyer (1:15)

                    dududu dududu d  dudu
eb|---------------------------------------------------------------------------|
Bb|---------------------------------------------------------------------------|
Gb|---------------------------------------------------------------------------|
Db|-5-3-0-----5-3-0-----------------------------------------------------------|
Ab|------4444-------444444-444444-4--4444-------------------------------------|
Eb|---------------------------------------------------------------------------|

CHORUS
Alex Linares (1:28)

eb|---------------------------------------------------------------------------|
Bb|---------------------------------------------------------------------------|
Gb|-44444444--------------444-333333333-777-111111----------------------------|
Db|-44444444-444-55555555-444-333333333-777-111111----------------------------|
Ab|-22222222-444-55555555-222-111111111-555-9-9-9-----------------------------|
Eb|----------222-33333333-----------------------------------------------------|

eb|---------------------------------------------------------------------------|
Bb|---------------------------------------------------------------------------|
Gb|-44444444--------------444-333333333-777-111111111111----------------------|
Db|-44444444-444-55555555-444-333333333-777-111111111111----------------------|
Ab|-22222222-444-55555555-222-111111111-555-9-9-9-9-9-9-----------------------|
Eb|----------222-33333333-----------------------------------------------------|

Break, then

BRIDGE
Alex Linares (2:00)

   dududu
eb|--------|
Bb|--------|
Gb|-888888-|
Db|-888888-|
Ab|-666666-|
Eb|--------|

Randy Strohmeyer (2:01)
Play notes in time with the syllables ("Glassy eyeballs filled with red...")

eb|-12-10-12-10-12-10-9~--12-10-12-10-12-10-9~-------------------------------|
Bb|--------------------------------------------------------------------------|
Gb|--------------------------------------------------------------------------|
Db|--------------------------------------------------------------------------|
Ab|--------------------------------------------------------------------------|
Eb|--------------------------------------------------------------------------|

2:08

   dududu dududu d dududu
eb|-----------------------|
Bb|-----------------------|
Gb|888888-888888-8-888888-|
Db|888888-888888-8-888888-|
Ab|666666-666666-6-666666-|
Eb|-----------------------|

Randy Strohmeyer (2:11)

    xxx   xxxxxxx   xxxxxxx   xxxxxxx   xxxxxxx   xxxxxxx   xxxxxxx   xx
eb|---------------------------------------------------------------------------|
Bb|-000-2-0000000-2-0000000-2-0000000-2-0000000-2-0000000-2-0000000-2-00-2----|
Gb|-444---4444444---4444444---4444444---4444444---4444444---4444444---44-0h2--|
Db|---------------------------------------------------------------------------|
Ab|---------------------------------------------------------------------------|
Eb|---------------------------------------------------------------------------|

Play x2 and then keep playing, with this bit playing over

2:28

eb|-000000-----------------------|
Bb|--------444444-000000-------0-|
Gb|----------------------22222---|
Db|------------------------------|
Ab|------------------------------|
Eb|------------------------------|

PRE-CHORUS
Randy Strohmeyer - 2:44

eb|-000~------| Listen for when to repeat.
Bb|------444~-|
Gb|-----------|
Db|-----------|
Ab|-----------|
Eb|-----------|

The guitar part here is played underneath, if you can hear it:

eb|--------------------------------------------------|
Bb|--------------------------------------------------|
Gb|-----4------4-----4-----4-----1-----1-----1-----1-|
Db|---6------6-----6-----6-----2-----2-----2-----2---|
Ab|-4------4-----4-----4-----0-----0-----0-----0-----|
Eb|--------------------------------------------------|

CHORUS
Alex Linares - 3:01
Play the normal chorus 2 frets up and sometimes play with the note values...
Tab just in case:

eb|---------------------------------------------------------------------------|
Bb|---------------------------------------------------------------------------|
Gb|-66666666--------------666-55555555555-999-131313--------------------------|
Db|-66666666-666-77777777-666-55555555555-999-131313--------------------------|
Ab|-44444444-666-77777777-444-33333333333-777-111111--------------------------|
Eb|----------444-55555555-----------------------------------------------------|

And then the song ends.



| / slide up
| \ slide down
| h hammer-on
| p pull-off
| v vibrato
| + harmonic
| x Mute note
=============================================================================== 
Tap to rate this tab
# A B C D E F G H I J K L M N O P Q R S T U V W X Y Z