Song name
# A B C D E F G H I J K L M N O P Q R S T U V W X Y Z

Finch - What Is It To Burn chords

Highlighted       Show chord diagrams
Finch
What it Is To Burn
What It Is To Burn
2002
Submitted by: paramore_fans@yahoo.com

There are 2 versions of this song, the original screamo and the acoustic, this tab is 
for the original screamo

Key: C#

Tuning: Standard EADGBe

Chords used:
C#    x46664
Bbm   x13321
G#    466544
F#    244322
Fm    133111

Intro: C#  Bbm  G#  F# (x4)


Guitar 2:
e|--------------------------------------------------------------------|
B|--------------------------------------------------------------------|
G|-6-6-6-6-5-5-6-6-3-3-3-3-5-5-6-6-8-8-8-8-5-5-6-6--------------------|
D|-x-x-x-x-x-x-x-x-x-x-x-x-x-x-x-x-x-x-x-x-x-x-x-x-4-4-4-4------------| x2
A|-4-4-4-4-3-3-4-4-1-1-1-1-3-3-4-4-6-6-6-6-3-3-4-4-x-x-x-x------------|
E|-------------------------------------------------2-2-2-2------------|

SHE BURNS!!!!


Verse 1:
C#           Fm
  Today's on fire
           F#
The sky is bleeding above me, and I am blistered
C#             Fm              F#        G#
  I walk these lines of blasphemy, every day
And still


Guitar 2: while doing verses
e|-6--4--6--4--1---1---1---1---|
B|---------------2---2---2---2-|
G|-----------------------------|
D|-----------------------------|
A|-----------------------------|
E|-----------------------------|


Chorus:
C#               Bbm           G#             F#
  Like a bad star, I'm falling faster down to her
C#              Bbm      G#                   F#
  She's the only one who knows, what it is to burn


Guitar 2: while doing chorus, do the intro part


Verse 2:
C#         Fm
  I feel diseased
         F#
Is there no sympathy, from the sun
C#                Fm
  The sky's still fire
         F#
But I am safe in here, from the world outside
C#          Fm          F#               G#
  So tell me What's the price to pay for glory


(Repeat Chorus)


Interlude: C#  Fm  F#  G# (x2)

Guitar 2: while doing interlude
e|-11---8---4---8---4---1---4---1-|
B|--------------------------------|
G|--------------------------------|
D|--------------------------------|
A|--------------------------------|
E|--------------------------------|

Guitar 3: while doing interlude do this part until bridge
e|---------------------------------|
B|-2-2-2-2-4-4-4-4-1-1-1-1---------|
G|-------------------------1-1-1-1-|
D|---------------------------------|
A|---------------------------------|
E|---------------------------------|


Bridge:
  C#     Fm        F#       G#
Today is fire, and she burns
  C#     Fm        F#       G#
Today is fire, and she burns


Guitar 2: while doing bridge
e|-4-4-2-2-1-1-2-2-----1-1-----|
B|-----------------4-4-----2-2-|
G|-----------------------------|
D|-----------------------------| x8
A|-----------------------------|
E|-----------------------------|


    C#    Bbm G#   F#    C#    Bbm-G#-F#
SHE BURNS,SHE BURNS, SHE BURNS!!!


(Repeat Chorus and the guitar 2 part there is similar to bridge)
Tap to rate this tab
 
# A B C D E F G H I J K L M N O P Q R S T U V W X Y Z