Song name
# A B C D E F G H I J K L M N O P Q R S T U V W X Y Z

Finch - Perfection Through Silence tab

Band: Finch
Song: Perfection Through Silence
Album: What It Is To Burn
Standard C# Tuning

Intro:
Guitar 1
d#-------------------------------------------------------------   -4--
A#-5-4-0-5-4-0-5-4-5-4-0-5-4-0-5-4-5-4-0-5-4-0-5-4-5-4-0-5-4-0- X2--7-
F#-------------------------------------------------------------   ----
C#-------------------------------------------------------------   ---- 
G#-------------------------------------------------------------   ----
C#-------------------------------------------------------------   ----

d#-------------4---------------4---------------4---------------4-------
A#-5-4-0-5-4-0---7-5-4-0-5-4-0---7-5-4-0-5-4-0---7-5-4-0-5-4-0---7---5-
F#---------------------------------------------------------------------
C#---------------------------------------------------------------------
G#---------------------------------------------------------------------
C#---------------------------------------------------------------------

Guitar 2
d#---------------------------------------------------------------------
A#---------------------------------------------------------------------
F#-99999999999999999999999999999999-66666666666666666666666666666666---
C#-99999999999999999999999999999999-66666666666666666666666666666666---
G#-77777777777777777777777777777777-44444444444444444444444444444444---
C#---------------------------------------------------------------------

d#-------------------------------------------------------------------
a#-------------------------------------------------------------------
F#-------------------------------------------------------------------
C#-77777777777777777777777777777777-99999999999999999999999999999999-
G#-77777777777777777777777777777777-99999999999999999999999999999999-
C#-77777777777777777777777777777777-99999999999999999999999999999999-

Pre chorus:
d#------------------------------------------------------
A#------------------------------------------------------
F#-9-xx9-xx9-xx-11xx6-xx6-xx----------------------------
c#-x-xxx-xxx-xx-x-xxx-xxx-xx-5-xx5-xx5-9999999999999999-
G#-7-xx7-xx7-xx-9-xx4-xx4-xx-x-xxx-xxx-9999999999999999-
C#---------------------------5-xx5-xx5-9999999999999999-


d#---------------------------------------------------------------------
A#---------------------------------------------------------------------
F#-----------------------------------6666666666666666-9999999999999999-
C#-9999999999999999-6666666666666666-6666666666666666-9999999999999999-
G#-9999999999999999-6666666666666666-4444444444444444-7777777777777777-
C#-9999999999999999-6666666666666666-----------------------------------

Chorus:
d#-------------------------------------------------------------------
A#-------------------------------------------------------------------
F#-99999999999999999999999999999999-66666666666666666666666666666666-
C#-99999999999999999999999999999999-66666666666666666666666666666666-
G#-77777777777777777777777777777777-44444444444444444444444444444444-
C#-------------------------------------------------------------------

d#-------------------------------------------------------------------
A#-------------------------------------------------------------------
F#-------------------------------------------------------------------
C#-66666666666666666666666666666666-77777777777777777777777777777777-
G#-66666666666666666666666666666666-77777777777777777777777777777777-
C#-66666666666666666666666666666666-77777777777777777777777777777777-
Tap to rate this tab
# A B C D E F G H I J K L M N O P Q R S T U V W X Y Z