Guitaretab - guitar tabs
Song name
# A B C D E F G H I J K L M N O P Q R S T U V W X Y Z

Finch - Without You Here tab

Song: Without You Here
Artist: Finch
Album: What It Is To Burn

Tabbed by: Gary the Hann
Email: Ckyfan1@hotmail.com

Tuning: Drop D


Intro/Verse
e|------------------------------|
B|------------------------------|
G|--8------7------7------7------|
D|--x-x20--x-x20--x-x10--5-x10--|
A|--6------6------5------5------|
D|------------------------------|
Listen to song for strumming this is just how I strum and it and may not be 100% like the song :)

Pre-Chorus
e|---------------------------------|
B|---------------------------------|
G|--8-----10----12----15-----------|
D|--x-x8--xx8--xx8--xx8--xx-xx--|
A|--6-----8-----10----13----xx-xx--|
D|--------------------------xx-xx--|
[ Tab from: http://www.guitaretab.com/f/finch/33305.html ]
Chorus
e|--------------------------------------------------------------------|
B|--------------------------------------------------------------------|
G|--------------------------------------------------------------------|
D|--5-5-55--1-1-11--8-8-88--3-3-33--5-5-xx-xx-1-1-11--8-8-88--3-3-33--|
A|--5-5-55--1-1-11--8-8-88--3-3-33--5-5-xx-xx-1-1-11--8-8-88--3-3-33--|
D|--5-5-55--1-1-11--8-8-88--3-3-33--5-5-xx-xx-1-1-11--8-8-88--3-3-33--|

Breakdown
e|----------------------------------------|
B|----------------------------------------|
G|----------------------------------------|
D|--11111111111111111111111111111111------|
A|--11111111111111111111111111111111------|
D|--11111111111111111111111111111111-\\\--|
    ................................

Outro
e|-------------------------------------------------------------------|
B|---------------------------------------------------------33333333--|
G|---------------------------------------------------------33333333--|
D|--888888888888888-111111111111111-555555555555555-111111111111111--|
A|--888888888888888-111111111111111-555555555555555-111111111111111--|
D|--888888888888888-111111111111111-555555555555555-111111111111111--|


Song Formation

Intro/Verse - x3
Pre-Chorus - x1
Chorus - x2
Intro/Verse - x2
Pre-Chorus - x1
Chorus - x2
Breakdown  x1
Outro  Until fades out
Related for Without You Here tab