Song name
# A B C D E F G H I J K L M N O P Q R S T U V W X Y Z

Finch - Once Upon My Nightstand tab

Hi and thanks for watching this tab.

I think normaly Finch plays in Drop D Half Step down or in D but
I didnt want to tune so I wrote it in E (be patient^^).
So:

Tuning: EADGBe (Standart)

The strum pattern is a bit strange but I think its something like:

X-xxxX-xxxxX-xx--------

but just figure out or play what how you like, it sounds good anyway.


Intro (00:00) x1:
Guitar 1:
e---0--0--0--0--------------------------------------------------------|
B---------------------------------------------------------------------|
G---2--2--2--2--------------------------------------------------------|
D---2--2--2--2--------------------------------------------------------|
A---0--2--2--0--------------------------------------------------------|
E---------------------------------------------------------------------|
             pm (pm only last strum)
Guitar2:
e---------------------------------------------------------------------|
B---------------------------------------------------------------------|
G---------------------------------------------------------------------|
D---------------------------------------------------------------------|
A---4--7--5--4--------------------------------------------------------|
E---------------------------------------------------------------------|

Verse (00:14) is the Same but x2...
(Im sleepin' to give my head....)

Chorus (00:45):
(I know! That this is all my fault....)
Guitar 1:
  <----x3----->   <----x1----------------------------------------------|
e------------------------0--0------------------------------------------|
B---7--7--7--7-----7--7------------------------------------------------|
G---7--7--7--7-----7--7--2--2------------------------------------------|
D------------------------2--2------------------------------------------|
A------------------------2--0------------------------------------------|
E----------------------------------------------------------------------|

Guitar 2:
  <----x3---->   <----x1-----------------------------------------------|
e----------------------------------------------------------------------|
B----------------------------------------------------------------------|
G----------------------------------------------------------------------|
D----------------------------------------------------------------------|
A---5--5--2--4----5--5--2--2-------------------------------------------|
E----------------------------------------------------------------------|


Then play the Intro (01:14) x1 again (without any break in between)

Then Verse again (01:29)

Then Chorus again (01:59)but as the last play the first chord of the intro
and mute the last strum (pm)....

Then Intro Again (02:33) (Don't pm the last strum this time)

Chorus again (02:48) (like the first)

Intro again and end on the last chord (one single strum)

Thats it.
Hope You liked it cause it took me more than an hour^^

And please Visit
http://famdesign.deviantart.com
and/or
http://www.pasionarts.de.vu
to support my work.
Tap to rate this tab
# A B C D E F G H I J K L M N O P Q R S T U V W X Y Z