Song name
# A B C D E F G H I J K L M N O P Q R S T U V W X Y Z

Finch - Project Mayhem tab

Drop D Tuning + 1/2 step down

Intro:
eb|-----------------------------|
Bb|-----------------------------| 
Gb|-2-2-2-----------------------| 
Db|-0-0-0--2p0h20h20h20h2--5-5--|
Ab|-0-0-0--2p0h20h20h20h2--5-5--|
Db|-0-0-0--2p0h20h20h20h2--5-5--|

Verse:
eb|----------------------|
Bb|----------------------|
Gb|----------------------|
Db|-2p0h20h20h20h2--5-5--|
Ab|-2p0h20h20h20h2--5-5--|
Db|-2p0h20h20h20h2--5-5--|

Chorus:
eb|----------------------------------------------------------------|
Bb|------3-3--3-3p1------3-3--3-3p1------3-3--3-3p1----3-3--3-3p1--|
Gb|----------------------------------------------------------------|
Db|-5-5--------------5-5------------2-2------------2-2-------------|
Ab|-5-5--------------5-5------------2-2------------2-2-------------|
Db|-5-5--------------5-5------------2-2------------2-2-------------|

Interlude:
eb|-----------------|
Bb|-----------------|
Gb|-----------------|
Db|-5-5--5-5--5-5---|
Ab|-5-5--5-5--5-5---|
Db|-5-5--5-5--5-5---|

Interlude 2:
eb|-----------------------------|
Bb|-----------------------------|
Gb|-----------------------------|
Db|-5-5--5-5--5-5--2-2-2-2-2-2--|
Ab|-5-5--5-5--5-5--2-2-2-2-2-2--|
Db|-5-5--5-5--5-5--2-2-2-2-2-2--|

Bridge:
eb|------------| 
Bb|-3-3--3>-3>-| 
Gb|------------| 
Db|------------| 
Ab|------------| 
Db|------------|

Outro:
eb|---------------|
Bb|---------------|
Gb|---------------|
Db|-2--5-5-5-5--2-|
Ab|-2--5-5-5-5--2-|
Db|-2--5-5-5-5--2-|

Outro 2:
eb|-------------------------------| 
Bb|-------------------------------| 
Gb|-----------------3-3--3>-3>----| 
Db|-2p0h20h20h20h2----------------| 
Ab|-2p0h20h20h20h2----------------| 
Db|-2p0h20h20h20h2----------------|
Tap to rate this tab
# A B C D E F G H I J K L M N O P Q R S T U V W X Y Z