Song name
# A B C D E F G H I J K L M N O P Q R S T U V W X Y Z

Finch - Reduced To Teeth tab

------------------------------------------------------------------------	
		Reduced to Teeth
		    by Finch	
		      from Say Hello to Sunshine
------------------------------------------------------------------------
Tabbed by Brian Rozboril
email=ieatlotsapaste@aol.com
Tuning: (low to high) Eb Ab Db Gb Bb eb 

Intro
eb|-----------------------------------------|
Bb|-----------------------------------------| Play this twice.
Gb|-----------------------------------------| 
Db|--2--2--2--2--2--2---2--2--2--2--2--2----| 
Ab|--------------------3--3--3--2--2--2-----| 
Eb|-0--0--0--0--0--0------------------------| 

Verse (All of these are harmonics.)
eb|--------------------------------------------| This gets played twice.  
Bb|--5----------5---------5---------5----------| There are a lot of effects
Gb|----5----------5---------5---------5--------| on this part, so play around
Db|--------4-5---------5-------4-5------5-4-5--| and experament and find what 
Ab|-------------------5-----------------------5| you think sounds best.
Eb|--------------------------------------------| 
    +...........................................

When he starts singing "Plastics itch...", guitar one plays the verse 
part and guitar two plays the intro part with less distortion. 
When he sings "masochists...", play this part...

eb|--------------------------|
Bb|--------------------------| Then go on to chorus one.
Gb|--------------------------| 
Db|-8-8-8-4-4-4-5-5-5-5-5-5--| 
Ab|-8-8-8-4-4-4-5-5-5-5-5-5--| 
Eb|-6-6-6-2-2-2-3-3-3-3-3-3--| 

Chorus One
eb|-----------------------------------------------|   Listen to the song
Bb|-----------------------------------------------|    for the exact 
Gb|-5-5-5-5-5-5-3-2-------------------------------|    rythme.
Db|-5-5-5-5-5-5-3-2-5-5-5-5-5-5-5-5--2-3-3-3-3-3--|X2
Ab|-3-3-3-3-3-3-1-0-5-5-5-5-5-5-5-5--2-3-3-3-3-3--|
Eb|-----------------3-3-3-3-3-3-3-3--0-1-1-1-1-1--|

eb|---------------------------------------|
Bb|--------------------------5------------| 
Gb|----------------------------5----------| 
Db|-8-8-8-4-4-4-5-5-5-5-5-5------5-4-5----| 
Ab|-8-8-8-4-4-4-5-5-5-5-5-5------------5--| 
Eb|-6-6-6-2-2-2-3-3-3-3-3-3---------------| 
                            +.............

After this, play verse two exactly the same way as you did the first one.

Chorus Two
Guitar Two (Second time of chorus two)
eb|-------------------------------------------------------------|
Bb|-4-3------------3-4-3-4-4-3------------3-4-3-4-3-3-4-3-3-4-3-| 
Gb|-----5-3--5-3-5-------------5-3--5-3-5-----------------------| 
Db|-------------------------------------------------------------| 
Ab|-------------------------------------------------------------| 
Eb|-------------------------------------------------------------| 

eb|------------------------|
Bb|-11----11--11-10-13-15--| Play each of these a lot.
Gb|--x-----x---x--x--x--x--| 
Db|--8-----8---8--7-10-12--| 
Ab|------------------------| 
Eb|------------------------| 

Bridge (clean)
eb|--------------------------------------------------------------------|
Bb|---7-10-7---------7-10-7---7-10-7----7-10-7--------7-10-7---7-10-7--| 
Gb|------------7--------------------------------7----------------------| 
Db|--9-------0--9-8---------8---------9--------0--9-8--------8---------| 
Ab|--------------------------------------------------------------------| 
Eb|--------------------------------------------------------------------| 

eb|--------------------------12------12-------------------------------12----12------|
Bb|---7-10-7---------7-10-7----10------10-------7-10-7--------7-10-7----10----10----| 
Gb|------------7------------------11-----11-------------7-----------------11----11--| 
Db|--9-------0---9-8--------------------------9--------0--9-8-----------------------| 
Ab|---------------------------------------------------------------------------------| 
Eb|---------------------------------------------------------------------------------| 

This gets played at "...Sound the alarm..."
eb|-0--0-0-0--0--0-0-0--0--0-0-0--0--0-0-0-|
Bb|-0--0-0-0--0--0-0-0--0--0-0-0--0--0-0-0-| 
Gb|-4--4-4-4--4--4-4-4--4--4-4-4--4--4-4-0-| 
Db|-4--4-4-4--4--4-4-4--4--4-4-4--4--4-4-4-| 
Ab|-2--2-2-2--2--2-2-2---------------------| 
Eb|---------------------2--2-2-2--2--2-2-2-| 
 
Guitar One (With Weird Effects)
eb|-----9-10-9-10-9-10-9-9-10-9--------9---9----9----12-14--9-----9-----|
Bb|-7/10------------------------10---10--10---10--10---------10----10---| 
Gb|--------------------------------11-------11-----------------11----11-| 
Db|---------------------------------------------------------------------| 
Ab|---------------------------------------------------------------------| 
Eb|---------------------------------------------------------------------| 
	You have to really listen to the song to get the timing and everything
	because of how it sounds.  Also, when he starts singing 
	"...All the king's horses...", play different variations of the 
	descending 9-10-11 part under the chords.  
This gets played at "...All the king's horses..."
eb|-0--0-0-0--0--0-0-0--0--0-0-0--0--0-0-0-|-------------12-12-12-12-14-14-14-14--|
Bb|-0--0-0-0--0--0-0-0--0--0-0-0--0--0-0-0-|-------------10-10-10-10-12-12-12-12--| 
Gb|-4--4-4-4--4--4-4-4--4--4-4-4--4--4-4-4-|--------------------------------------| 
Db|-4--4-4-4--4--4-4-4--4--4-4-4--4--4-4-4-|-X2--5-5-5----------------------------| 
Ab|-2--2-2-2--2--2-2-2---------------------|-----5-5-5----------------------------| 
Eb|---------------------2--2-2-2--2--2-2-2-|-----3-3-3----------------------------| 
Something like that at least.

Solo
eb|-7---7-----------------------------------------------------------|
Bb|--8----8-----8-10-/12-10-----------------------------------------| 
Gb|---9-----9-8-------------12-11----------------------------0------| 
Db|-------------------------------13-12-10-9-10-/12----12-----------| 
Ab|-------------------------------------------------10---10-9--9-8--| 
Eb|-----------------------------------------------------------------| 

Break Down
eb|----------------------------------------------------------|
Bb|----------------------------------------------------------| 
Gb|------------------5-5-5-5-5-5-5-5---------7-7-7-7-7-7-7---|
Db|-x-x-x-x---2-2-2--5-5-5-5-5-5-5-5--2-2-2--7-7-7-7-7-7-7---| 
Ab|-x-x-x-x---2-2-2--3-3-3-3-3-3-3-3--2-2-2--5-5-5-5-5-5-5---| 
Eb|-x-x-x-x---0-0-0-------------------0-0-0------------------| 

eb|---------------------------------------------|
Bb|---------------------------------------------| 
Gb|---------------------------------------------| 
Db|-2-2-2--/7-7-7-7-7-5-5-5-5-5-/9-9-9-9-9-9-9--| 
Ab|-2-2-2--/7-7-7-7-7-5-5-5-5-5-/9-9-9-9-9-9-9--| 
Db|-0-0-0--/5-5-5-5-5-3-3-3-3-3-/7-7-7-7-7-7-7--| 
Play that stuff twice, then play the intro part, along with those 
harmonics.  To end the song off, just play the Eb power chord 
and you're done.  Have fun.  RIP Finch.  They were a great band.

| /  slide up
| \  slide down
| h  hammer-on
| p  pull-off
| ~  vibrato
| +  harmonic
| x  Mute note
|...(pm) Palm Mute
===============================================================================
Tap to rate this tab
# A B C D E F G H I J K L M N O P Q R S T U V W X Y Z