Song name
# A B C D E F G H I J K L M N O P Q R S T U V W X Y Z

Finde - Contra La Pared chords

Highlighted       Show chord diagrams
INTRO
  G   Em        B
|-----------------------------------------|
|---3-----0---0---4---4---4-----4----4----|
|---0-----0---0---4---4---4-----4----4----|
|-----------------------------------------|
|-----0/2-------0---2---0---0/2---2-------|
|-3---------0-----------------------------|

Canción
  G      Em       B
|-------------------------------------|
|---3---3---0---0---4---4---4---4-----|
|---0---0---0---0---4---4---4---4-----|
|-------------------------------------|
|-----2-------2---0---2---2---2-------|
|-3-------0---------------------------|

G       Em       B
Atraveso la pared,
   G      Em       B
y se llevaron su ropa
   G      Em       B
ya no se puede mover
    C              B
el frio solo la agota

G         Em       B
No hay nada preparado,
G         Em       B
si he de seguirte dime a donde,
             G
no importa mas
Em      B
no importa mas

     C
El tiempo se acaba
    B
y no quiero alejarme de ti

CORO
G                   B
Me tienes contra la pared
                 Em
me pega cada vez mas fuerte
               C
y el aire abandona tu cuerpo,
    G
se va

G                     B
Me tienes contra la pared
                    Em
no quiero dejar de verte
               C
y el aire abandona tu cuerpo
   B
solo por un momento
C       G
no, no te vayas

.INTRO.

G         Em           B
Dicen que viste de negro
G       Em      B
Cuando ataca su feroz animal
G   Em      B
Hoy seras mi secreto
              C
En lo profundo del mar
     B
Donde nadie te aparte de Mi 

CORO
G                   B
Me tienes contra la pared
                    Em
Me pega cada vez mas fuerte
               C
Y el aire abandona tu cuerpo
   G
Se va
                     B
Me tienes contra la pared
                    Em
No quiero dejar de verte
                 C
Tenerte hasta el dia en que
 B                    C
Los huesos se queden atrás
  Em                    G
Y a la luz de la luna llorar
  B             Em      C
Laralaralala
G                  B                Em
Dime que cuando te busque te voy a encontrar.
Tap to rate this tab
 
# A B C D E F G H I J K L M N O P Q R S T U V W X Y Z