Song name
# A B C D E F G H I J K L M N O P Q R S T U V W X Y Z

Finde - No Que No tab

-------------------------------------------------------------------------------
                             no que no - Finde
-------------------------------------------------------------------------------
Tabbed by: SGplayer2
E-mail: jcvb_129@hotmail.com

Tuning:EADGBe

Intro:
 (riff 1)
e|-----------------------------------------------------------------------|
B|-----------------------------------------------------------------------|
G|-----------------------4--4-4-------------------4--4-4-----------------|REPEAT
D|--------------6---6-6----------6--6-6-------------------6-6-6----------|
A|-----4--4--4---------------------------------------------------7--7-7--|
E|---------------------------------------5--5--5-------------------------| X4
 (riff 2)
e|---------------------------------------------------------|
B|---------------------------------------------------------|
G|---------------------------------------------------------|
D|----6--6-6-6-6-6---9-9-9--11-11-11---11---11---4-4-4-----|
A|----4--4-4-4-4-4---7-7-7--9--9--9----9----9----2-2-2-----|
E|---------------------------------------------------------| x2 (i think)
               OR
e|-------------------------------------------------------------|
B|-------------------------------------------------------------|
G|-------------------4-4-4---6-6-6--6--6-----------------------|
D|----6--6-6-6-6-6---2-2-2---4-4-4--4--4---4-4-4---6-----------|
A|----4--4-4-4-4-4-------------------------2-2-2---4.----------| X2
E|-------------------------------------------------------------|
Tap to rate this tab
# A B C D E F G H I J K L M N O P Q R S T U V W X Y Z