Song name
# A B C D E F G H I J K L M N O P Q R S T U V W X Y Z

Finde - Square Rooms tab

Finde –Square Rooms

Standard Tuning ((EADGBe)

	Guitar 1
Intro
e|----------|
B|----------|
G|----------|
D|-77777777-|
A|-77777777-|
E|-55555555-|

Intro Guitar 2

e|---------------|
B|-14-14-14-15-12|
G|---------------|
D|---------------| (x8)
A|---------------|
E|---------------|

Verse (Bass And Drums)

Thinking in square rooms, a human without illusions. Sad strains on a sad face is that 
we've come to? Is the world bold this love old moving now here and it's gonna cold. The 
stops the clouds go we're all alone.

Pre Chorus Guitar 1 (Oh Oh I know.)

e|-------|-------|-----|-----------------|
B|-------|-------|-----|-----------------|
G|-------|-------|-----|-----------------|
D|-9-7-5-|-9-7-5-|-9-9-|-7777777777777777| (x2)
A|-9-7-5-|-9-7-5-|-9-9-|-7777777777777777|
E|-7-5-3-|-7-5-3-|-7-7-|-5555555555555555|

Chorus

Guitar 1 (Oh oh square rooms!)

e|----------|----------|----------|---------|
B|----------|----------|----------|---------|
G|----------|----------|----------|---------|
D|-77777777-|-55555555-|-77777777-|-99999999|
A|-77777777-|-55555555-|-77777777-|-99999999| (x2)
E|-55555555-|-33333333-|-55555555-|-77777777|

Verse

Walks long and long clears the vision of one with one. And you still move me you undo me 
you've always done

e|-------5-6-7-8|
B|--------------|
G|--------------|
D|-77-77--------|
A|-77-77--------|
E|-55-55--------|
PM......

But I realize now we've not made you out of words now. Just you and me, just you and me 
the end of time.

Pre Chorus Guitar 1 (Oh Oh I know.)

e|-------|-------|-----|-----------------|
B|-------|-------|-----|-----------------|
G|-------|-------|-----|-----------------|
D|-9-7-5-|-9-7-5-|-9-9-|-7777777777777777| (x2)
A|-9-7-5-|-9-7-5-|-9-9-|-7777777777777777|
E|-7-5-3-|-7-5-3-|-7-7-|-5555555555555555|

Chorus

Guitar 1 (Oh oh square rooms!)

e|----------|----------|----------|---------|
B|----------|----------|----------|---------|
G|----------|----------|----------|---------|
D|-77777777-|-55555555-|-77777777-|-99999999|
A|-77777777-|-55555555-|-77777777-|-99999999| (x2)
E|-55555555-|-33333333-|-55555555-|-77777777|

Bridge

e|----------|-------|------|
B|----------|-------|------|
G|-10-10-10-|-8-8-8-|-6-6-6|
D|-x--x--x--|-x-x-x-|-x-x-x| (x2)
A|-8--8--8--|-6-6-6-|-4-4-4|
E|----------|-------|------|


e|-------|-------|---------|
B|-------|-------|---------|
G|-6-6-6-|-8-8-8-|-10-10—10|
D|-x-x-x-|-x-x-x-|-x—-x---x| (x2)
A|-4-4-4-|-6-6-6-|-8--8---8|
E|-------|-------|---------|


e|-------|-------|------|
B|-------|-------|------|
G|-------|-------|------|
D|-5-5-5-|-7-7-7-|-4-4-4|
A|-------|-------|------|
E|-------|-------|------|
PM...... ...... ...... ..

Coro
Tap to rate this tab
# A B C D E F G H I J K L M N O P Q R S T U V W X Y Z