Guitaretab - guitar tabs
Song name
# A B C D E F G H I J K L M N O P Q R S T U V W X Y Z

Finding Westerly - Visions Of What Once Was tab

Finding Westerly – Visions of What Once Was
http://www.lasalle.edu/~lallym1/band.htm
www.findingwesterly.com

Standard Tuning

Intro
||---------------------------------------------------------------------
||--6-------6-------6-------6-----------6-----6---------6------6-------
||6---8---6---8---6---8---6---8--(6)--6--8--6--8—(3)--6---8--6---8-----
||-------------------------------(6)-------------(3)-------------------
||-------------------------------(4)-------------(1)-------------------
||---------------------------------------------------------------------****play 4 times**

Pre-Verse
||-------------------------------------------------------------------|
||-------------6----------6-----------------6----------6-------------|
||---(6)--6--8---8---6--8---8-----(3)--6--8---8---6--8---8-----------|
||---(6)--------------------------(3)--------------------------------|
||---(4)--------------------------(1)--------------------------------|
||-------------------------------------------------------------------|
					          play 4 times
[ Tab from: http://www.guitaretab.com/f/finding-westerly/69259.html ]
Verse
||-------------------------------------------
||-------------------------------------------
||-xx6--xx6-- xx6--xx6---xx3--xx3--xx3--xx3-- 
||-xx6--xx6---xx6--xx6---xx3--xx3--xx3--xx3-- 
||-xx4--xx4---xx4--xx4---xx1--xx1--xx1--xx1-- 
||-------------------------------------------

||-------------------------------------------
||-------------------------------------------
||-xx6--xx6--xx6--xx6--xx3--xx3--------------
||-xx6--xx6--xx6--xx6--xx3--xx3--xx6--xx6----
||-xx4--xx4--xx4--xx4--xx1--xx1--xx6--xx6----
||-------------------------------------------
Waste another day…								

Play twice


Chorus
||------------------------------|
||------------------------------|
||---------3-------------3------|					
||---4-----3-(6)----4----3------|					
||---4-----1-(6)----4----1------|					
||---2-------(4)----2-----------|    Chorus x2
Walk out to the street…									
								
Break										
||-------------------------------------------------|			
||-------------------------------------------------|
||-------------------3-------------3---------------|
||---4-----6----4----3---2x----4---3---6---2x------|
||---4-----6----4----1---------4---1---6-----------|
||---2-----4----2--------------2-------4-----------|
Related for Visions Of What Once Was tab