Song name
# A B C D E F G H I J K L M N O P Q R S T U V W X Y Z

Finger Eleven - Easy Life tab

-------------------------------------------------------------------------------
			    Easy Life - Finger Eleven
-------------------------------------------------------------------------------
Tabbed by:TheTroy
Tuning: standard

INTRO
e|---------------------------------------------------------------------------|
B|---------------------------------------------------------------------------|
G|---------------------------------------------------------------------------|
D|-2-2-22--------0-----2-22-------0------------------------------------------|
A|-0-0-00--0-1-3---3-1-0-00-0-1-3---3-1--------------------------------------|
E|---------------------------------------------------------------------------|

INTRO PT. 2
e|---------------------------------------------------------------------------|
B|---------------------------------------------------------------------------|
G|---------------------------------------------------------------------------|
D|-----------------7-7-7-7-7-7-7-7-------------------------------------------|
A|-5-5-5-5-5-5-5-5-5-5-5-5-5-5-5-5-------------------------------------------|
E|-3-3-3-3-3-3-3-3-----------------------------------------------------------|

Verse
e|------------------3~--2~--------------------3~--10~-----12b13r12-10--------|
B|------------------5~--4~--------------------5~--12~--10-------------10-----|
G|-------------2----5~--4~---------------2----5~--12~------------------------|
D|-----2-----2---2--5~--4~-------2-----2---2--5~--12~------------------------|
A|---2---2-0--------3~--2~-----2---2-0--------3~--10~------------------------|
E|-0-------------------------0-----------------------------------------------|

sry. that is all i can figure out. feedback and corrections and add-ons are accepted
Tap to rate this tab
# A B C D E F G H I J K L M N O P Q R S T U V W X Y Z