Song name
# A B C D E F G H I J K L M N O P Q R S T U V W X Y Z

Finger Eleven - Good Times tab

Finger Eleven -=- Good Times

Tuning: Standard
Tabbed by: Paul van Heijst

Really cool song by Finger Eleven.

I'm not quite sure about the chorus :s 
Look for the rhythm yourself, its pretty quick...
And... enjoy it!!! 



Intro:
e||----------------------||
B||----------------------||
G||----------10--11------||
D||-------8--10--11------|| 8X
A||-------8---8---9------||
E||-------6--------------||




Verse:                                            1. Time     2. Time
e||--------------------------------------------||----------||------------||
B||--------------------------------------------||----------||------------||
G||-----8-10-------8-10-------8-10-------8-10--||----10-11-||-----8------|| 2x
D||-10--8-10---10--8-10---10--8-10---10--8-10--||-8--10-11-||-8---8-let  ||
A||-10--6--8---10--6--8---10--6--8---10--6--8--||-8---8--9-||-8---6-ring ||
E||--8----------8----------8----------8--------||-6--------||-6----------||

						  --------     -------- 
                                                     4x           1x


Chorus:
e||----------------------------------------------------||  |
B||----------------------------------------------------||  |
G||-------------8--8--10-------------------------------||  |
D||--8---11-11--8--8--10-----8---11-11-10-10--6--------||  |
A||--8---11-11--6--6---8-----8---11-11-10-10--6--------||  |
E||--6----9--9---------------6----9--9--8--8--4--------||  |
                                                           |
							   | 2x
Chorus cont.                                               |
e||----------------------------------------------------||  |
B||----------------------------------------------------||  |
G||-------------8--8--10-13-13-13-13-13----------------||  |
D||--8---11-11--8--8--10-13-13-13-13-13----------------||  |
A||--8---11-11--6--6---8-11-11-11-11-11----------------||  |
E||--6----9--9-----------------------------------------||  |



Riff:
e||----------------------||
B||----------------------||
G||----------10--11------||
D||-------8--10--11------|| 2X
A||-------8---8---9------||
E||-------6--------------||



Verse:                                            1. Time     2. Time
e||--------------------------------------------||----------||------------||
B||--------------------------------------------||----------||------------||
G||-----8-10-------8-10-------8-10-------8-10--||----10-11-||-----8------|| 2x
D||-10--8-10---10--8-10---10--8-10---10--8-10--||-8--10-11-||-8---8-let  ||
A||-10--6--8---10--6--8---10--6--8---10--6--8--||-8---8--9-||-8---6-ring ||
E||--8----------8----------8----------8--------||-6--------||-6----------||

						  --------     -------- 
                                                     2x           1x

Chorus:
e||----------------------------------------------------||  |
B||----------------------------------------------------||  |
G||-------------8--8--10-------------------------------||  |
D||--8---11-11--8--8--10-----8---11-11-10-10--6--------||  |
A||--8---11-11--6--6---8-----8---11-11-10-10--6--------||  |
E||--6----9--9---------------6----9--9--8--8--4--------||  |
                                                           |
							   | 4x
Chorus cont.                                               |
e||----------------------------------------------------||  |
B||----------------------------------------------------||  |
G||-------------8--8--10-13-13-13-13-13----------------||  |
D||--8---11-11--8--8--10-13-13-13-13-13----------------||  |
A||--8---11-11--6--6---8-11-11-11-11-11----------------||  |
E||--6----9--9-----------------------------------------||  |



Bridge:
e||----------------------||
B||----------------------||
G||----------------------||
D||-------9-----6--------|| 4X
A||-------9-----6--------||
E||-------7-----4--------||



Chorus:
e||----------------------------------------------------||  |
B||----------------------------------------------------||  |
G||-------------8--8--10-------------------------------||  |
D||--8---11-11--8--8--10-----8---11-11-10-10--6--------||  |
A||--8---11-11--6--6---8-----8---11-11-10-10--6--------||  |
E||--6----9--9---------------6----9--9--8--8--4--------||  |
                                                           |
							   | 8x
Chorus cont.                                               |
e||----------------------------------------------------||  |
B||----------------------------------------------------||  |
G||-------------8--8--10-13-13-13-13-13----------------||  |
D||--8---11-11--8--8--10-13-13-13-13-13----------------||  |
A||--8---11-11--6--6---8-11-11-11-11-11----------------||  |
E||--6----9--9-----------------------------------------||  |



Riff:
e||----------------------||
B||----------------------||
G||----------10--11------||
D||-------8--10--11------|| 8X
A||-------8---8---9------||
E||-------6--------------||



Outro:
Chorus:
e||----------------------------||--------||
B||----------------------------||--------||
G||---------------8--8--10-10--||--------||
D||--8--8--11-11--8--8--10-10--||--8-----|| 4x
A||--8--8--11-11--6--6---8--8--||--8 let ||
E||--6--6---9--9---------------||--6 ring||


So... end of the song...it's a fast song...
I hope u enjoyed it!!!
p_vanheijst@hotmail.com
Tap to rate this tab
# A B C D E F G H I J K L M N O P Q R S T U V W X Y Z