Song name
# A B C D E F G H I J K L M N O P Q R S T U V W X Y Z

Finger Eleven - Living In A Dream tab

LIVE VERSION!!!
LISTEN TO THE SONG FOR THE TIMING AND VARIATION OF THE NOTES
Effects - Distortion, & Octaver
youtube.com/HELLIONNUMBER96

Intro: Guitar 1 With Octaver
E|----------------|
B|----------------|
G|------3--3-3-3--|
D|-3-6--3--3-3-3--|
A|-3-6--1--1-1-1--|
E|-1-4------------|

Intro 2 time: Both Guitars Just Distortion And Backup Vocals
E|--------------------|------------------|
B|---9-10b11r10-9-----|------------------|
G|-10-------------10--|-6-6-6-6-8-8-8-8--|
D|--------------------|-6-6-6-6-8-8-8-8--|
A|--------------------|-4-4-4-4-6-6-6-6--|
E|--------------------|------------------|

"And Today's Another Day..."
E|-------------------------------------------------------------|
B|-------------------------------------------------------------|
G|---------------6-6--6--6-6-6---------------5--5--5--5--5-5-5-|
D|-3-3--3--3-3-3-6-6--6--6-6-6-6-6--6--6-6-6-5--5--5--5--5-5-5-|
A|-3-3--3--3-3-3-4-4--4--4-4-4-6-6--6--6-6-6-3--3--3--3--3-3-3-|
E|-1-1--1--1-1-1---------------4-4--4--4-4-4-------------------|

"'cause I'm Just Thinking About Us"
E|-------------------------------------|
B|-------------------------------------|
G|-6--6-6-6-6-6-6----------------------|
D|-6--6-6-6-6-6-6----------------------|
A|-4--4-4-4-4-4-4--8-6-8-6-8-6-8-6-8\--|
E|-------------------------------------|

"I've Been Living In A Dream About Us..."
E|-------------------------|
B|-------------------------|
G|------------6-6----------|
D|-3-3---3----6-6---6---6--|
A|-3-3-1---1--4-4-4---4----|
E|-1-1---------------------|
PM     *          *

"And If I Never See..."
E|-----------------------------------------------|---------------------|
B|-----------------------------------------------|---------------------|
G|-------------x-3-x-3-x-6-x-6-8-6--6-6-6-6-6-6--|---------------------|
D|-3-3-x-6-x-6-x-3-x-3-x-6-x-6-8-6--6-6-6-6-6-6--|---------------------|
A|-3-3-x-6-x-6-x-1-x-1-x-4-x-4-6-4--4-4-4-4-4-4--|-8-6-8-6-8-6-8-6-8\--|
E|-1-1-x-4-x-4-----------------------------------|---------------------| Then Octaver Intro Twice

(STILL WORKING ON THE LITTLE SOLO)


Outro: Repeat Intro with Both Guitars And End With
E|----|
B|----|
G|----|
D|-3--|
A|-3--|
E|-1--|
Tap to rate this tab
 
# A B C D E F G H I J K L M N O P Q R S T U V W X Y Z