Song name
# A B C D E F G H I J K L M N O P Q R S T U V W X Y Z

Finger Eleven - Living In A Dream tab

Finger Eleven - Living in a Dream (Guitar Cover by JRockeStar)

Hey this is my first tab.
This is how i play it. Check out my guitar cover on YouTube:
http://www.youtube.com/watch?v=IMavrA0TEY0                             


Track 1
     Q    Q.     S E  S E     Q    Q.     S E  S E     Q    Q.     S E  S E   
E||------------------------|------------------------|------------------------|
B||------------------------|------------------------|------------------------|
G||--------------8----8----|--------------8----8----|--------------8----8----|
D||--3----6------8-8--8-8--|--3----6------8-8--8-8--|--3----6------8-8--8-8--|
A||--3----6------6-8--6-8--|--3----6------6-8--6-8--|--3----6------6-8--6-8--|
E||--1----4--------6----6--|--1----4--------6----6--|--1----4--------6----6--|


  Q    Q.     S. E.  S.    Q    Q.     S E  S E     Q    Q.     S E  E.   
------------------------|------------------------|-----------------------|
------------------------|------------------------|-----------------------|
------------------------|------------------------|-----------------------|
--3----6----------------|--3----6------6-8--6-8--|--3----6------8-6--1---|
--3----6----------------|--3----6------6-8--6-8--|--3----6------8-6--1---|
--1----4----------------|--1----4------4-6--4-6--|--1----4------6-4------|


  Q    Q.     S E  S E     E  E  E  E  E  S E  S E   
------------------------|---------------------------|
------------------------|---------------------------|
------------------------|--------6----------8-------|
--3----6------6-8--6-8--|-----6-----6-----8----8----|
--3----6------6-8--6-8--|--4-----------6---------6--|
--1----4------4-6--4-6--|---------------------------|


   Q     Q     E.   E   S  S S     Q     Q     E.   E   S  S S  
---8-----8-----8----8---8--8---|---8-----8-----8----8---8--8---|
---9-----9-----9----9---9--9---|---9-----9-----9----9---9--9---|
--10----10----10---10--10-10---|--10----10----10---10--10-10---|
--10----10----10---10--10-10---|--10----10----10---10--10-10---|
-------------------------------|-------------------------------|
-------------------------------|-------------------------------|


   Q     Q     E.   E   S  S S     Q     Q     E.   E   S  S S  
---8-----8-----8----8---8--8---|-------------------------------|
---9-----9-----9----9---9--9---|---8-----8-----8----8---8--8---|
--10----10----10---10--10-10---|---9-----9-----9----9---9--9---|
--10----10----10---10--10-10---|--10----10----10---10--10-10---|
-------------------------------|--10----10----10---10--10-10---|
-------------------------------|-------------------------------|


  Q    E.  Q    E  S E     Q    E.  Q    E  S E     Q    E.  Q    E  S E   
------------------------|------------------------|------------------------|
------------------------|------------------------|------------------------|
------------------------|--6----6--------6--6-6--|------------------------|
--3----3--------3--3-3--|--6----6--------6--6-6--|--6----6--------6--6-6--|
--3----3--------3--3-3--|--4----4--------4--4-4--|--6----6--------6--6-6--|
--1----1--------1--1-1--|------------------------|--4----4--------4--4-4--|


  Q    Q    E.  E  S E     E  E  E  E  E  E  E  E   
------------------------|--------------------------|
------------------------|--------------------------|
--5----5----5---5--5-5--|--6--6--6--6--6--6--6--6--|
--5----5----5---5--5-5--|--6--6--6--6--6--6--6--6--|
--3----3----3---3--3-3--|--4--4--4--4--4--4--4--4--|
------------------------|--------------------------|


   S E   S E   S E   S E   S  S  E     Q    Q    E.  E.  E   
------------------------------------|-----------------------|
------------------------------------|-----------------------|
--10-8--10-8--10-8--10-8--10-10-10--|-----------------------|
--10-8--10-8--10-8--10-8--10-10-10--|--3----3----6---6---6--|
---8-6---8-6---8-6---8-6---8--8--8--|--3----3----6---6---6--|
------------------------------------|--1----1----4---4---4--|


  E  E  Q     E.   E.   E     Q    Q    E.  E.  E     E  E  Q     E.   E.   E   
---------------------------|-----------------------|---------------------------|
---------------------------|-----------------------|---------------------------|
---------------------------|-----------------------|---------------------------|
-----8--8----11---11---13--|--3----3----6---6---6--|-----8--8----11---11---13--|
-----8--8----11---11---13--|--3----3----6---6---6--|-----8--8----11---11---13--|
-----6--6-----9----9---11--|--1----1----4---4---4--|-----6--6-----9----9---11--|


  S E.  Q    S E.  Q       S E.  Q    S  E.   E   E   
------------------------|----------------------------|
------------------------|----------------------------|
------------------------|----------------------------|
--x-3---3----x-6---6----|--x-8---8----x-11---11--13--|
--x-3---3----x-6---6----|--x-8---8----x-11---11--13--|
--x-1---1----x-4---4----|--x-6---6----x--9----9--11--|


   E   E   E   E   E   E   E   E      S E   S E   S E   S E   S  S  E   
----------------------------------|------------------------------------|
----------------------------------|------------------------------------|
----------------------------------|--10-8--10-8--10-8--10-8--10-10-10--|
--11--11--11--11--11--11--11--11--|--10-8--10-8--10-8--10-8--10-10-10--|
--11--11--11--11--11--11--11--11--|---8-6---8-6---8-6---8-6---8--8--8--|
---9---9---9---9---9---9---9---9--|------------------------------------|


  Q    Q.     S E  S E     Q    Q.     S E  E.     W                 
------------------------|-----------------------|-------------------|
------------------------|-----------------------|-------------------|
------------------------|-----------------------|-------------------|
--3----6------6-8--6-8--|--3----6------8-6--1---|-------------------|
--3----6------6-8--6-8--|--3----6------8-6--1---|-------------------|
--1----4------4-6--4-6--|--1----4------6-4------|-------------------|


  W                   W                   W                 
-------------------|-------------------|-------------------|
-------------------|-------------------|-------------------|
-------------------|-------------------|-------------------|
-------------------|-------------------|-------------------|
-------------------|-------------------|-------------------|
-------------------|-------------------|-------------------|


  Q    Q    E.  E  S E     Q    Q    E.  E  S E     Q    Q    E.  E  S E   
------------------------|------------------------|------------------------|
------------------------|------------------------|------------------------|
------------------------|--6----6----6---6--6-6--|------------------------|
--3----3----3---3--3-3--|--6----6----6---6--6-6--|--6----6----6---6--6-6--|
--3----3----3---3--3-3--|--4----4----4---4--4-4--|--6----6----6---6--6-6--|
--1----1----1---1--1-1--|------------------------|--4----4----4---4--4-4--|


  Q    Q    E.  E  S E     E  E  E  E  E  E  E  E   
------------------------|--------------------------|
------------------------|--------------------------|
--5----5----5---5--5-5--|--6--6--6--6--6--6--6--6--|
--5----5----5---5--5-5--|--6--6--6--6--6--6--6--6--|
--3----3----3---3--3-3--|--4--4--4--4--4--4--4--4--|
------------------------|--------------------------|


   S E   S E   S E   S E   S  S  E     Q    Q    E.  E.  E   
------------------------------------|-----------------------|
------------------------------------|-----------------------|
--10-8--10-8--10-8--10-8--10-10-10--|-----------------------|
--10-8--10-8--10-8--10-8--10-10-10--|--3----3----6---6---6--|
---8-6---8-6---8-6---8-6---8--8--8--|--3----3----6---6---6--|
------------------------------------|--1----1----4---4---4--|


  E  E  Q     E.   E.   E     Q    Q    E.  E.  E     E  E  Q     E.   E.   E   
---------------------------|-----------------------|---------------------------|
---------------------------|-----------------------|---------------------------|
---------------------------|-----------------------|---------------------------|
-----8--8----11---11---13--|--3----3----6---6---6--|-----8--8----11---11---13--|
-----8--8----11---11---13--|--3----3----6---6---6--|-----8--8----11---11---13--|
-----6--6-----9----9---11--|--1----1----4---4---4--|-----6--6-----9----9---11--|


  S E.  Q    S E.  Q       S E.  Q    S  E.   E   E   
------------------------|----------------------------|
------------------------|----------------------------|
------------------------|----------------------------|
--x-3---3----x-6---6----|--x-8---8----x-11---11--13--|
--x-3---3----x-6---6----|--x-8---8----x-11---11--13--|
--x-1---1----x-4---4----|--x-6---6----x--9----9--11--|


   E   E   E   E   E   E   E   E      S E   S E   S E   S E   S  S  E   
----------------------------------|------------------------------------|
----------------------------------|------------------------------------|
----------------------------------|--10-8--10-8--10-8--10-8--10-10-10--|
--11--11--11--11--11--11--11--11--|--10-8--10-8--10-8--10-8--10-10-10--|
--11--11--11--11--11--11--11--11--|---8-6---8-6---8-6---8-6---8--8--8--|
---9---9---9---9---9---9---9---9--|------------------------------------|


   E   E   E   E   E   E   E   E     E   E  E   E  E  E  E  Q.       
--13------13------11------11------|--9------9------8-----8----------|
------14------14------13------13--|-----11-----11-----9-----9~------|
----------------------------------|---------------------------------|
----------------------------------|---------------------------------|
----------------------------------|---------------------------------|
----------------------------------|---------------------------------|


  Q.     E   E   E  Q        E   E   E   E   E   E   E   E   
-------------------------|--13------13------11------11------|
---------8h--9p--8--6----|------14------14------13------13--|
-------------------------|----------------------------------|
-------------------------|----------------------------------|
-------------------------|----------------------------------|
-------------------------|----------------------------------|


  E   E  E   E  E  E  E  E      W                     W                  
--9------9------8-----8-----|---------------------|---------------------|
-----11-----11-----9-----9--|--11b----------------|--11b----------------|
----------------------------|---------------------|---------------------|
----------------------------|---------------------|---------------------|
----------------------------|---------------------|---------------------|
----------------------------|---------------------|---------------------|


   W                     W                      E.     E   Q.      E   E.    
--13~----------------|--18b~----------------|--18br---16--18------16--18b---|
---------------------|----------------------|-------------------------------|
---------------------|----------------------|-------------------------------|
---------------------|----------------------|-------------------------------|
---------------------|----------------------|-------------------------------|
---------------------|----------------------|-------------------------------|


   E.   H.           S    W                   W                 
--16---13--------------|-------------------|-------------------|
-----------------------|--L----------------|-------------------|
-----------------------|-------------------|-------------------|
-----------------------|-------------------|-------------------|
-----------------------|-------------------|-------------------|
-----------------------|-------------------|-------------------|


  W                   W                    H         H         
-------------------|-------------------|----------------------|
-------------------|-------------------|----------------------|
-------------------|-------------------|----------------------|
-------------------|-------------------|-------------3--------|
-------------------|-------------------|-------------3--------|
-------------------|-------------------|--14s--------1--------|


  S E.  Q    S E.  Q       S E.  Q    S  E.   E   E   
------------------------|----------------------------|
------------------------|----------------------------|
------------------------|----------------------------|
--x-3---3----x-6---6----|--x-8---8----x-11---11--13--|
--x-3---3----x-6---6----|--x-8---8----x-11---11--13--|
--x-1---1----x-4---4----|--x-6---6----x--9----9--11--|


   E   E   E   E   E   E   E   E      S E   S E   S E   S E   S  S  E   
----------------------------------|------------------------------------|
----------------------------------|------------------------------------|
----------------------------------|--10-8--10-8--10-8--10-8--10-10-10--|
--11--11--11--11--11--11--11--11--|--10-8--10-8--10-8--10-8--10-10-10--|
--11--11--11--11--11--11--11--11--|---8-6---8-6---8-6---8-6---8--8--8--|
---9---9---9---9---9---9---9---9--|------------------------------------|


  Q    Q.     S E  S E     Q    Q.     S E  E.     Q    Q.     S E  S E   
------------------------|-----------------------|------------------------|
------------------------|-----------------------|------------------------|
------------------------|-----------------------|------------------------|
--3----6------6-8--6-8--|--3----6------8-6--1---|--3----6------6-8--6-8--|
--3----6------6-8--6-8--|--3----6------8-6--1---|--3----6------6-8--6-8--|
--1----4------4-6--4-6--|--1----4------6-4------|--1----4------4-6--4-6--|


  E  E  E  E  E  S E  S E     Q    Q.     S E  S E     Q    Q.     S E  E.   
---------------------------|------------------------|-----------------------|
---------------------------|------------------------|-----------------------|
--------6----------8-------|------------------------|-----------------------|
-----6-----6-----8----8----|--3----6------6-8--6-8--|--3----6------8-6--1---|
--4-----------6---------6--|--3----6------6-8--6-8--|--3----6------8-6--1---|
---------------------------|--1----4------4-6--4-6--|--1----4------6-4------|


  Q    Q.     S E  S E     E  E  E  E  E  S E  S E     W                  
------------------------|---------------------------|-------------------||
------------------------|---------------------------|-------------------||
------------------------|--------6----------8-------|-------------------||
--3----6------6-8--6-8--|-----6-----6-----8----8----|--3----------------||
--3----6------6-8--6-8--|--4-----------6---------6--|--3----------------||
--1----4------4-6--4-6--|---------------------------|--1----------------||




Duration Legend
---------------
W - whole
H - half
Q - quarter
E - 8th
S - 16th
T - 32nd
X - 64th
. - note dotted
|-n-|  - n-tuplets


Tablature Legend
----------------
L - tied note
x - dead note
g - grace note
(n) - ghost note
> - accentuded note
NH - natural harmonic
AH - artificial harmonic
TH - tapped harmonic
SH - semi harmonic
PH - pitch harmonic
h - hammer on
p - pull off
b - bend
br - bendRelease
pb - preBend
pbr - preBendRelease
brb - bendReleaseBend
\n/ - tremolo bar dip
\n - tremolo bar dive
-/n - tremolo bar Release up
/n\ - tremolo bar inverted dip
/n - tremolo bar return
-\n - tremolo bar Release down
S - shift slide
s - legato slide
/ -  slide into from below or out of upwards
\ -  slide into from above or out of downwards
~ - vibrato
W - wide vibrato
tr - trill
TP - tremolo picking
T - tapping
S - slap
P - pop
< - fade in
^ - brush up
v - brush down
Tap to rate this tab
# A B C D E F G H I J K L M N O P Q R S T U V W X Y Z