Song name
# A B C D E F G H I J K L M N O P Q R S T U V W X Y Z

Finger Eleven - Drag You Down tab

Tabs: "Drag You Down"
Performed By: Finger Eleven
From the Wind-Up/BMG
release: "The Greyest of Blue Skies"

Tune half a step down and drop low E to D

Intro (light distortion)--
=========================================
1:---------------------------------------|
2:---------------------------------------|
3:---2------0------2------2--------------|   Play 4 times
4:---------------------------------------|
5:-0----3-1------0----3-1----------------|
6:---------------------------------------|

Main Riff (Distortion)--
==========================
1:------------------------------|
2:------------------------------|  Play 2 times
3:----7777----------777---------|
4:-0--xxxx-----0h1--xxx---------|
5:-0--5555-----0h1--555---------|
6:-0-----------0h1--------------|

pre chorus (light distortion)
=======================
1:---------------------|
2:-----6-5-------6-5---|
3:---------------------|
4:---------------------|
5:---------------------|
6:--0--------5---------|

Chorus (Distortion)--
===============================================
1:---------------------------------------------|
2:---------------------------------------------|
3:------------------77-------------------------| Play 4 times
4:-0-0-0--1-1--0-0--77-3-1---------------------|
5:-0-0-0--1-1--0-0--55-3-1---------------------|
6:-0-0-0--1-1--0-0--55-3-1---------------------|
Tap to rate this tab
 
# A B C D E F G H I J K L M N O P Q R S T U V W X Y Z