Song name
# A B C D E F G H I J K L M N O P Q R S T U V W X Y Z

Finger Eleven - Walking In My Shoes tab

My version of the solo. Personally I don't think the other tabs were right about this 
part, but that's my opinion.

1:---------------------------------------------------------------|
2:--------6-5~--5-8-6------10-8--10/11-11-11-11\3/10-10-10-10\3--|
3:-7~---7----------------7---------------------------------------|
4:---------------------------------------------------------------|
5:---------------------------------------------------------------|
6:---------------------------------------------------------------|



1:---------------------8----8----8----8-------------------------|
2:-11b--11b--11b--11b--11b--11b--11b--11b-----------------------|
3:--------------------------------------------------------------|
4:--------------------------------------------------------------|
5:--------------------------------------------------------------|
6:--------------------------------------------------------------|
Tap to rate this tab
 
# A B C D E F G H I J K L M N O P Q R S T U V W X Y Z